  0
SECTION
  2
HEADER
  9
$ACADVER
  1
AC1015
  9
$ACADMAINTVER
 70
     6
  9
$DWGCODEPAGE
  3
ANSI_1250
  9
$INSBASE
 10
0.0
 20
0.0
 30
0.0
  9
$EXTMIN
 10
0.0
 20
0.0
 30
0.0
  9
$EXTMAX
 10
20000.0
 20
10000.0
 30
0.0
  9
$LIMMIN
 10
0.0
 20
0.0
  9
$LIMMAX
 10
20000.0
 20
10000.0
  9
$ORTHOMODE
 70
     0
  9
$REGENMODE
 70
     1
  9
$FILLMODE
 70
     1
  9
$QTEXTMODE
 70
     0
  9
$MIRRTEXT
 70
     1
  9
$LTSCALE
 40
1.0
  9
$ATTMODE
 70
     1
  9
$TEXTSIZE
 40
2.0
  9
$TRACEWID
 40
1.0
  9
$TEXTSTYLE
  7
STANDARD
  9
$CLAYER
  8
0
  9
$CELTYPE
  6
ByLayer
  9
$CECOLOR
 62
   256
  9
$CELTSCALE
 40
1.0
  9
$DISPSILH
 70
     0
  9
$DIMSCALE
 40
1.0
  9
$DIMASZ
 40
2.0
  9
$DIMEXO
 40
1.0
  9
$DIMDLI
 40
3.75
  9
$DIMRND
 40
0.0
  9
$DIMDLE
 40
0.0
  9
$DIMEXE
 40
1.0
  9
$DIMTP
 40
0.0
  9
$DIMTM
 40
0.0
  9
$DIMTXT
 40
2.0
  9
$DIMCEN
 40
2.5
  9
$DIMTSZ
 40
0.0
  9
$DIMTOL
 70
     0
  9
$DIMLIM
 70
     0
  9
$DIMTIH
 70
     1
  9
$DIMTOH
 70
     1
  9
$DIMSE1
 70
     0
  9
$DIMSE2
 70
     0
  9
$DIMTAD
 70
     1
  9
$DIMZIN
 70
     0
  9
$DIMBLK
  1

  9
$DIMASO
 70
     1
  9
$DIMSHO
 70
     1
  9
$DIMPOST
  1

  9
$DIMAPOST
  1

  9
$DIMALT
 70
     0
  9
$DIMALTD
 70
     3
  9
$DIMALTF
 40
0.0393700787
  9
$DIMLFAC
 40
1.0
  9
$DIMTOFL
 70
     1
  9
$DIMTVP
 40
0.0
  9
$DIMTIX
 70
     0
  9
$DIMSOXD
 70
     0
  9
$DIMSAH
 70
     0
  9
$DIMBLK1
  1

  9
$DIMBLK2
  1

  9
$DIMSTYLE
  2
ISO-25
  9
$DIMCLRD
 70
     0
  9
$DIMCLRE
 70
     0
  9
$DIMCLRT
 70
     0
  9
$DIMTFAC
 40
1.0
  9
$DIMGAP
 40
1.524
  9
$DIMJUST
 70
     0
  9
$DIMSD1
 70
     0
  9
$DIMSD2
 70
     0
  9
$DIMTOLJ
 70
     0
  9
$DIMTZIN
 70
     0
  9
$DIMALTZ
 70
     0
  9
$DIMALTTZ
 70
     0
  9
$DIMUPT
 70
     0
  9
$DIMDEC
 70
     2
  9
$DIMTDEC
 70
     0
  9
$DIMALTU
 70
     2
  9
$DIMALTTD
 70
     3
  9
$DIMTXSTY
  7
STANDARD
  9
$DIMAUNIT
 70
     0
  9
$DIMADEC
 70
     2
  9
$DIMALTRND
 40
0.0
  9
$DIMAZIN
 70
     0
  9
$DIMDSEP
 70
    44
  9
$DIMATFIT
 70
     3
  9
$DIMFRAC
 70
     0
  9
$DIMLDRBLK
  1

  9
$DIMLUNIT
 70
     2
  9
$DIMLWD
 70
    -2
  9
$DIMLWE
 70
    -2
  9
$DIMTMOVE
 70
     0
  9
$LUNITS
 70
     2
  9
$LUPREC
 70
     3
  9
$SKETCHINC
 40
1.0
  9
$FILLETRAD
 40
10.0
  9
$AUNITS
 70
     0
  9
$AUPREC
 70
     2
  9
$MENU
  1
.
  9
$ELEVATION
 40
0.0
  9
$PELEVATION
 40
0.0
  9
$THICKNESS
 40
0.0
  9
$LIMCHECK
 70
     0
  9
$CHAMFERA
 40
0.0
  9
$CHAMFERB
 40
0.0
  9
$CHAMFERC
 40
0.0
  9
$CHAMFERD
 40
0.0
  9
$SKPOLY
 70
     0
  9
$TDCREATE
 40
2460648.462123044
  9
$TDUCREATE
 40
2460648.420456377
  9
$TDUPDATE
 40
2460648.462123958
  9
$TDUUPDATE
 40
2460648.420457292
  9
$TDINDWG
 40
0.0000000116
  9
$TDUSRTIMER
 40
0.0000000116
  9
$USRTIMER
 70
     1
  9
$ANGBASE
 50
0.0
  9
$ANGDIR
 70
     0
  9
$PDMODE
 70
     0
  9
$PDSIZE
 40
-1.0
  9
$PLINEWID
 40
0.0
  9
$SPLFRAME
 70
     0
  9
$SPLINETYPE
 70
     6
  9
$SPLINESEGS
 70
     8
  9
$HANDSEED
  5
154
  9
$SURFTAB1
 70
     6
  9
$SURFTAB2
 70
     6
  9
$SURFTYPE
 70
     6
  9
$SURFU
 70
     6
  9
$SURFV
 70
     6
  9
$UCSBASE
  2

  9
$UCSNAME
  2

  9
$UCSORG
 10
0.0
 20
0.0
 30
0.0
  9
$UCSXDIR
 10
1.0
 20
0.0
 30
0.0
  9
$UCSYDIR
 10
0.0
 20
1.0
 30
0.0
  9
$UCSORTHOREF
  2

  9
$UCSORTHOVIEW
 70
     0
  9
$UCSORGTOP
 10
0.0
 20
0.0
 30
0.0
  9
$UCSORGBOTTOM
 10
0.0
 20
0.0
 30
0.0
  9
$UCSORGLEFT
 10
0.0
 20
0.0
 30
0.0
  9
$UCSORGRIGHT
 10
0.0
 20
0.0
 30
0.0
  9
$UCSORGFRONT
 10
0.0
 20
0.0
 30
0.0
  9
$UCSORGBACK
 10
0.0
 20
0.0
 30
0.0
  9
$PUCSBASE
  2

  9
$PUCSNAME
  2

  9
$PUCSORG
 10
0.0
 20
0.0
 30
0.0
  9
$PUCSXDIR
 10
1.0
 20
0.0
 30
0.0
  9
$PUCSYDIR
 10
0.0
 20
1.0
 30
0.0
  9
$PUCSORTHOREF
  2

  9
$PUCSORTHOVIEW
 70
     0
  9
$PUCSORGTOP
 10
0.0
 20
0.0
 30
0.0
  9
$PUCSORGBOTTOM
 10
0.0
 20
0.0
 30
0.0
  9
$PUCSORGLEFT
 10
0.0
 20
0.0
 30
0.0
  9
$PUCSORGRIGHT
 10
0.0
 20
0.0
 30
0.0
  9
$PUCSORGFRONT
 10
0.0
 20
0.0
 30
0.0
  9
$PUCSORGBACK
 10
0.0
 20
0.0
 30
0.0
  9
$USERI1
 70
     0
  9
$USERI2
 70
     0
  9
$USERI3
 70
     0
  9
$USERI4
 70
     0
  9
$USERI5
 70
     0
  9
$USERR1
 40
0.0
  9
$USERR2
 40
0.0
  9
$USERR3
 40
0.0
  9
$USERR4
 40
0.0
  9
$USERR5
 40
0.0
  9
$WORLDVIEW
 70
     1
  9
$SHADEDGE
 70
     3
  9
$SHADEDIF
 70
    70
  9
$TILEMODE
 70
     1
  9
$MAXACTVP
 70
    64
  9
$PINSBASE
 10
0.0
 20
0.0
 30
0.0
  9
$PLIMCHECK
 70
     0
  9
$PEXTMIN
 10
1.0000000000E+20
 20
1.0000000000E+20
 30
1.0000000000E+20
  9
$PEXTMAX
 10
-1.0000000000E+20
 20
-1.0000000000E+20
 30
-1.0000000000E+20
  9
$PLIMMIN
 10
0.0
 20
0.0
  9
$PLIMMAX
 10
420.0
 20
297.0
  9
$UNITMODE
 70
     0
  9
$VISRETAIN
 70
     1
  9
$PLINEGEN
 70
     0
  9
$PSLTSCALE
 70
     1
  9
$TREEDEPTH
 70
  3020
  9
$CMLSTYLE
  2
Standard
  9
$CMLJUST
 70
     0
  9
$CMLSCALE
 40
20.0
  9
$PROXYGRAPHICS
 70
     1
  9
$MEASUREMENT
 70
     1
  9
$CELWEIGHT
370
    -1
  9
$ENDCAPS
280
     0
  9
$JOINSTYLE
280
     0
  9
$LWDISPLAY
290
     1
  9
$INSUNITS
 70
     4
  9
$HYPERLINKBASE
  1

  9
$STYLESHEET
  1

  9
$XEDIT
290
     1
  9
$CEPSNTYPE
380
     0
  9
$PSTYLEMODE
290
     1
  9
$FINGERPRINTGUID
  2
{4d9da2cd-6029-4e0f-8e0d-6eabd5ffeaf1}
  9
$VERSIONGUID
  2
{FAEB1C32-E019-11D5-929B-00C0DF256EC4}
  9
$EXTNAMES
290
     1
  9
$PSVPSCALE
 40
0.0
  9
$OLESTARTUP
290
     0
  0
ENDSEC
  0
SECTION
  2
CLASSES
  0
CLASS
  1
ACDBDICTIONARYWDFLT
  2
AcDbDictionaryWithDefault
  3
ObjectDBX Classes
 90
        0
280
     0
281
     0
  0
CLASS
  1
VISUALSTYLE
  2
AcDbVisualStyle
  3
ObjectDBX Classes
 90
     4095
280
     0
281
     0
  0
CLASS
  1
MATERIAL
  2
AcDbMaterial
  3
ObjectDBX Classes
 90
     1153
280
     0
281
     0
  0
CLASS
  1
SCALE
  2
AcDbScale
  3
ObjectDBX Classes
 90
     1153
280
     0
281
     0
  0
CLASS
  1
TABLESTYLE
  2
AcDbTableStyle
  3
ObjectDBX Classes
 90
     4095
280
     0
281
     0
  0
CLASS
  1
MLEADERSTYLE
  2
AcDbMLeaderStyle
  3
ACDB_MLEADERSTYLE_CLASS
 90
     4095
280
     0
281
     0
  0
CLASS
  1
SUN
  2
AcDbSun
  3
SCENEOE
 90
     1153
280
     0
281
     0
  0
CLASS
  1
ACDBPLACEHOLDER
  2
AcDbPlaceHolder
  3
ObjectDBX Classes
 90
        0
280
     0
281
     0
  0
CLASS
  1
LAYOUT
  2
AcDbLayout
  3
ObjectDBX Classes
 90
        0
280
     0
281
     0
  0
ENDSEC
  0
SECTION
  2
TABLES
  0
TABLE
  2
VPORT
  5
8
330
0
100
AcDbSymbolTable
 70
     1
  0
VPORT
  5
29
330
8
100
AcDbSymbolTableRecord
100
AcDbViewportTableRecord
  2
*Active
 70
     0
 10
0.0
 20
0.0
 11
1.0
 21
1.0
 12
10000.0
 22
5000.0
 13
0.0
 23
0.0
 14
10.0
 24
10.0
 15
10.0
 25
10.0
 16
0.0
 26
0.0
 36
1.0
 17
0.0
 27
0.0
 37
0.0
 40
10000.0
 41
2.0
 42
50.0
 43
0.0
 44
0.0
 50
0.0
 51
0.0
 71
     0
 72
  2000
 73
     1
 74
     3
 75
     0
 76
     0
 77
     0
 78
     0
281
     0
 65
     1
110
0.0
120
0.0
130
0.0
111
1.0
121
0.0
131
0.0
112
0.0
122
1.0
132
0.0
 79
     0
146
0.0
  0
ENDTAB
  0
TABLE
  2
LTYPE
  5
5
330
0
100
AcDbSymbolTable
 70
    10
  0
LTYPE
  5
14
330
5
100
AcDbSymbolTableRecord
100
AcDbLinetypeTableRecord
  2
ByBlock
 70
     0
  3

 72
    65
 73
     0
 40
0.0
  0
LTYPE
  5
15
330
5
100
AcDbSymbolTableRecord
100
AcDbLinetypeTableRecord
  2
ByLayer
 70
     0
  3

 72
    65
 73
     0
 40
0.0
  0
LTYPE
  5
16
330
5
100
AcDbSymbolTableRecord
100
AcDbLinetypeTableRecord
  2
Continuous
 70
     0
  3
Solid line
 72
    65
 73
     0
 40
0.0
  0
LTYPE
  5
6E
330
5
100
AcDbSymbolTableRecord
100
AcDbLinetypeTableRecord
  2
SLD-Plná
 70
     0
  3
SolidWorks Line Style
 72
    65
 73
     0
 40
0.0
  0
LTYPE
  5
6F
330
5
100
AcDbSymbolTableRecord
100
AcDbLinetypeTableRecord
  2
SLD-Čárkovaná
 70
     0
  3
SolidWorks Line Style
 72
    65
 73
     2
 40
1.905
 49
1.27
 74
     0
 49
-0.635
 74
     0
  0
LTYPE
  5
70
330
5
100
AcDbSymbolTableRecord
100
AcDbLinetypeTableRecord
  2
SLD-Dvojitě-čerchovaná
 70
     0
  3
SolidWorks Line Style
 72
    65
 73
     6
 40
12.7
 49
6.35
 74
     0
 49
-1.27
 74
     0
 49
1.27
 74
     0
 49
-1.27
 74
     0
 49
1.27
 74
     0
 49
-1.27
 74
     0
  0
LTYPE
  5
71
330
5
100
AcDbSymbolTableRecord
100
AcDbLinetypeTableRecord
  2
SLD-Čerchovaná
 70
     0
  3
SolidWorks Line Style
 72
    65
 73
     4
 40
10.16
 49
6.35
 74
     0
 49
-1.27
 74
     0
 49
1.27
 74
     0
 49
-1.27
 74
     0
  0
LTYPE
  5
72
330
5
100
AcDbSymbolTableRecord
100
AcDbLinetypeTableRecord
  2
SLD-Osa
 70
     0
  3
SolidWorks Line Style
 72
    65
 73
     4
 40
19.05
 49
15.24
 74
     0
 49
-1.27
 74
     0
 49
1.27
 74
     0
 49
-1.27
 74
     0
  0
LTYPE
  5
73
330
5
100
AcDbSymbolTableRecord
100
AcDbLinetypeTableRecord
  2
SLD-Tečkovaná
 70
     0
  3
SolidWorks Line Style
 72
    65
 73
     2
 40
0.635
 49
0.0
 74
     0
 49
-0.635
 74
     0
  0
LTYPE
  5
74
330
5
100
AcDbSymbolTableRecord
100
AcDbLinetypeTableRecord
  2
SLD-Hrubá-tenká-čerchovaná
 70
     0
  3
SolidWorks Line Style
 72
    65
 73
     4
 40
10.16
 49
6.35
 74
     0
 49
-1.27
 74
     0
 49
1.27
 74
     0
 49
-1.27
 74
     0
  0
LTYPE
  5
75
330
5
100
AcDbSymbolTableRecord
100
AcDbLinetypeTableRecord
  2
SLD-Řez-1
 70
     0
  3
SolidWorks Line Style
 72
    65
 73
     4
 40
8.128
 49
5.08
 74
     0
 49
-1.016
 74
     0
 49
1.016
 74
     0
 49
-1.016
 74
     0
  0
LTYPE
  5
76
330
5
100
AcDbSymbolTableRecord
100
AcDbLinetypeTableRecord
  2
SLD-Řez-2
 70
     0
  3
SolidWorks Line Style
 72
    65
 73
     2
 40
5080.0
 49
0.0
 74
     0
 49
-5080.0
 74
     0
  0
ENDTAB
  0
TABLE
  2
LAYER
  5
2
330
0
100
AcDbSymbolTable
 70
    13
  0
LAYER
  5
10
330
2
100
AcDbSymbolTableRecord
100
AcDbLayerTableRecord
  2
0
 70
     0
 62
     7
  6
Continuous
370
    -3
390
F
  0
LAYER
  5
77
330
2
100
AcDbSymbolTableRecord
100
AcDbLayerTableRecord
  2
FORMAT
 70
     0
 62
     7
  6
SLD-Plná
370
    -3
390
F
  0
LAYER
  5
78
330
2
100
AcDbSymbolTableRecord
100
AcDbLayerTableRecord
  2
OSA
 70
     0
 62
     7
  6
SLD-Hrubá-tenká-čerchovaná
370
    -3
390
F
  0
LAYER
  5
79
330
2
100
AcDbSymbolTableRecord
100
AcDbLayerTableRecord
  2
0_35
 70
     0
 62
     7
  6
SLD-Plná
370
    35
390
F
  0
LAYER
  5
7A
330
2
100
AcDbSymbolTableRecord
100
AcDbLayerTableRecord
  2
0_5
 70
     0
 62
     7
  6
SLD-Plná
370
    50
390
F
  0
LAYER
  5
7B
330
2
100
AcDbSymbolTableRecord
100
AcDbLayerTableRecord
  2
0_25
 70
     0
 62
     7
  6
SLD-Plná
370
    25
390
F
  0
LAYER
  5
7C
330
2
100
AcDbSymbolTableRecord
100
AcDbLayerTableRecord
  2
0_18
 70
     0
 62
     7
  6
SLD-Plná
370
    -3
390
F
  0
LAYER
  5
7D
330
2
100
AcDbSymbolTableRecord
100
AcDbLayerTableRecord
  2
SLD-0
 70
     0
 62
   179
  6
SLD-Plná
370
    -3
390
F
  0
LAYER
  5
7E
330
2
100
AcDbSymbolTableRecord
100
AcDbLayerTableRecord
  2
KOTY
 70
     0
 62
     7
  6
SLD-Plná
370
    -3
390
F
  0
LAYER
  5
7F
330
2
100
AcDbSymbolTableRecord
100
AcDbLayerTableRecord
  2
SILNA
 70
     0
 62
   179
  6
SLD-Plná
370
    -3
390
F
  0
LAYER
  5
80
330
2
100
AcDbSymbolTableRecord
100
AcDbLayerTableRecord
  2
0_18_1
 70
     0
 62
   179
  6
SLD-Plná
370
    -3
390
F
  0
LAYER
  5
81
330
2
100
AcDbSymbolTableRecord
100
AcDbLayerTableRecord
  2
0_35_1
 70
     0
 62
   179
  6
SLD-Plná
370
    35
390
F
  0
LAYER
  5
82
330
2
100
AcDbSymbolTableRecord
100
AcDbLayerTableRecord
  2
0_5_1
 70
     0
 62
   179
  6
SLD-Plná
370
    50
390
F
  0
ENDTAB
  0
TABLE
  2
STYLE
  5
3
330
0
100
AcDbSymbolTable
 70
     1
  0
STYLE
  5
11
330
3
100
AcDbSymbolTableRecord
100
AcDbTextStyleTableRecord
  2
STANDARD
 70
     0
 40
0.0
 41
1.0
 50
0.0
 71
     0
 42
2.0
  3
SWISOP1.TTF
  4

1001
ACAD
1000
SWISOP1
1071
        2
  0
ENDTAB
  0
TABLE
  2
VIEW
  5
6
330
0
100
AcDbSymbolTable
 70
     0
  0
ENDTAB
  0
TABLE
  2
UCS
  5
7
330
0
100
AcDbSymbolTable
 70
     0
  0
ENDTAB
  0
TABLE
  2
APPID
  5
9
330
0
100
AcDbSymbolTable
 70
     1
  0
APPID
  5
12
330
9
100
AcDbSymbolTableRecord
100
AcDbRegAppTableRecord
  2
ACAD
 70
     0
  0
ENDTAB
  0
TABLE
  2
DIMSTYLE
  5
A
330
0
100
AcDbSymbolTable
 70
     1
100
AcDbDimStyleTable
  0
DIMSTYLE
105
27
330
A
100
AcDbSymbolTableRecord
100
AcDbDimStyleTableRecord
  2
ISO-25
 70
     0
 41
2.5
 42
0.625
 43
3.75
 44
1.25
 73
     0
 74
     0
 77
     1
 78
     8
140
2.5
141
2.5
143
0.0393700787
147
0.625
171
     3
172
     1
178
     0
271
     2
272
     2
274
     3
278
    44
283
     0
284
     8
340
11
  0
ENDTAB
  0
TABLE
  2
BLOCK_RECORD
  5
1
330
0
100
AcDbSymbolTable
 70
     1
  0
BLOCK_RECORD
  5
1F
330
1
100
AcDbSymbolTableRecord
100
AcDbBlockTableRecord
  2
*Model_Space
340
22
  0
BLOCK_RECORD
  5
1B
330
1
100
AcDbSymbolTableRecord
100
AcDbBlockTableRecord
  2
*Paper_Space
340
1E
  0
BLOCK_RECORD
  5
23
330
1
100
AcDbSymbolTableRecord
100
AcDbBlockTableRecord
  2
*Paper_Space0
340
26
  0
ENDTAB
  0
ENDSEC
  0
SECTION
  2
BLOCKS
  0
BLOCK
  5
20
330
1F
100
AcDbEntity
  8
0
100
AcDbBlockBegin
  2
*Model_Space
 70
     0
 10
0.0
 20
0.0
 30
0.0
  3
*Model_Space
  1

  0
ENDBLK
  5
21
330
1F
100
AcDbEntity
  8
0
100
AcDbBlockEnd
  0
BLOCK
  5
1C
330
1B
100
AcDbEntity
 67
     1
  8
0
100
AcDbBlockBegin
  2
*Paper_Space
 70
     0
 10
0.0
 20
0.0
 30
0.0
  3
*Paper_Space
  1

  0
ENDBLK
  5
1D
330
1B
100
AcDbEntity
 67
     1
  8
0
100
AcDbBlockEnd
  0
BLOCK
  5
24
330
23
100
AcDbEntity
  8
0
100
AcDbBlockBegin
  2
*Paper_Space0
 70
     0
 10
0.0
 20
0.0
 30
0.0
  3
*Paper_Space0
  1

  0
ENDBLK
  5
25
330
23
100
AcDbEntity
  8
0
100
AcDbBlockEnd
  0
ENDSEC
  0
SECTION
  2
ENTITIES
  0
SPLINE
  5
83
330
1F
100
AcDbEntity
  8
0
  6
SLD-Plná
 62
     7
370
    25
100
AcDbSpline
210
0.0
220
0.0
230
1.0
 70
     8
 71
     3
 72
    22
 73
    18
 74
     0
 42
0.00000001
 43
0.00000001
 40
0.0
 40
0.0
 40
0.0
 40
0.0
 40
0.0719768248602105
 40
0.1474421678166048
 40
0.2199524207067287
 40
0.2898274940707416
 40
0.3573802327473
 40
0.4229033943758609
 40
0.4866603739173203
 40
0.5488800421320823
 40
0.6097553812611061
 40
0.6694451256903701
 40
0.7280773999160058
 40
0.7857543688814569
 40
0.8613017232494374
 40
0.9354409251782471
 40
0.9999999999999999
 40
0.9999999999999999
 40
0.9999999999999999
 40
0.9999999999999999
 10
6024.936113014185
 20
5263.56956445964
 30
0.0
 10
6027.870740945389
 20
5260.364366098027
 30
0.0
 10
6033.882230126137
 20
5253.798622254276
 30
0.0
 10
6043.743621697348
 20
5244.415637253852
 30
0.0
 10
6054.150911817526
 20
5235.485361703802
 30
0.0
 10
6064.848309444648
 20
5227.315693273621
 30
0.0
 10
6075.782962004521
 20
5219.885803429958
 30
0.0
 10
6086.922722150839
 20
5213.184057895528
 30
0.0
 10
6098.227612175516
 20
5207.195161744247
 30
0.0
 10
6109.658856954164
 20
5201.903306530608
 30
0.0
 10
6121.178061181875
 20
5197.291624907996
 30
0.0
 10
6132.748463536595
 20
5193.341856063809
 30
0.0
 10
6144.335658712397
 20
5190.036978715529
 30
0.0
 10
6157.159885955564
 20
5187.061521997945
 30
0.0
 10
6171.209487411724
 20
5184.666846490057
 30
0.0
 10
6185.862603880914
 20
5183.047629286038
 30
0.0
 10
6195.394925427893
 20
5182.767966416468
 30
0.0
 10
6199.831879328071
 20
5182.637793377952
 30
0.0
  0
SPLINE
  5
84
330
1F
100
AcDbEntity
  8
0
  6
SLD-Plná
 62
     7
370
    25
100
AcDbSpline
210
0.0
220
0.0
230
1.0
 70
     8
 71
     3
 72
    23
 73
    19
 74
     0
 42
0.00000001
 43
0.00000001
 40
0.0
 40
0.0
 40
0.0
 40
0.0
 40
0.0378653142616769
 40
0.0876456350248815
 40
0.1410367028230268
 40
0.1980675134059381
 40
0.2587943588826742
 40
0.3233089406566449
 40
0.3917482364590451
 40
0.4550063201376606
 40
0.5215906593903074
 40
0.5917208693231332
 40
0.665666389079738
 40
0.72778742961867
 40
0.7927387685911428
 40
0.8607206301607903
 40
0.9319440751884976
 40
0.9999999999999999
 40
0.9999999999999999
 40
0.9999999999999999
 40
0.9999999999999999
 10
6348.206770921285
 20
5182.618023762057
 30
0.0
 10
6350.800075992726
 20
5182.676981580666
 30
0.0
 10
6356.802716515631
 20
5182.813449362651
 30
0.0
 10
6366.440584604677
 20
5183.538028385447
 30
0.0
 10
6377.338258960732
 20
5184.797397811141
 30
0.0
 10
6388.890257885379
 20
5186.707203753344
 30
0.0
 10
6401.050902985839
 20
5189.352678046533
 30
0.0
 10
6413.763105018507
 20
5192.845803033315
 30
0.0
 10
6426.361227649995
 20
5197.093759470064
 30
0.0
 10
6438.753996038489
 20
5202.065539145691
 30
0.0
 10
6450.869531992786
 20
5207.721333736284
 30
0.0
 10
6463.157847841519
 20
5214.346008100028
 30
0.0
 10
6474.653122776261
 20
5221.46452394924
 30
0.0
 10
6485.335750540888
 20
5228.932973321299
 30
0.0
 10
6495.218097823474
 20
5236.615770461314
 30
0.0
 10
6505.007988803207
 20
5245.097915796603
 30
0.0
 10
6514.424817504878
 20
5254.090292140118
 30
0.0
 10
6520.251080533955
 20
5260.455041048229
 30
0.0
 10
6523.097961009483
 20
5263.565041284694
 30
0.0
  0
ARC
  5
85
330
1F
100
AcDbEntity
  8
0
  6
SLD-Plná
 62
     7
370
    25
100
AcDbCircle
 10
6348.2428446281
 20
5180.5905366292
 30
0.0
 40
1.999999979757047
100
AcDbArc
 50
91.0274200766
 51
164.9735530969
  0
ARC
  5
86
330
1F
100
AcDbEntity
  8
0
  6
SLD-Plná
 62
     7
370
    25
100
AcDbCircle
 10
6199.7946660441
 20
5180.5905366292
 30
0.0
 40
1.999999979750062
100
AcDbArc
 50
15.0264469029
 51
88.9584207784
  0
LINE
  5
87
330
1F
100
AcDbEntity
  8
0
  6
SLD-Plná
 62
     7
370
    25
100
AcDbLine
 10
6257.5837264936
 20
5172.7035010273
 30
0.0
 11
6257.5837264936
 21
5172.5534273078
 31
0.0
  0
LINE
  5
88
330
1F
100
AcDbEntity
  8
0
  6
SLD-Plná
 62
     7
370
    25
100
AcDbLine
 10
6290.0187553361
 20
5172.6956607691
 30
0.0
 11
6290.0187553361
 21
5162.7954818777
 31
0.0
  0
LINE
  5
89
330
1F
100
AcDbEntity
  8
0
  6
SLD-Plná
 62
     7
370
    25
100
AcDbLine
 10
6296.0187553361
 20
5162.7954818777
 30
0.0
 11
6296.0187553361
 21
5172.822356376
 31
0.0
  0
LINE
  5
8A
330
1F
100
AcDbEntity
  8
0
  6
SLD-Plná
 62
     7
370
    25
100
AcDbLine
 10
6252.0187553361
 20
5172.822356376
 30
0.0
 11
6252.0187553361
 21
5162.7954818777
 31
0.0
  0
LINE
  5
8B
330
1F
100
AcDbEntity
  8
0
  6
SLD-Plná
 62
     7
370
    25
100
AcDbLine
 10
6258.0187553361
 20
5162.7954818777
 30
0.0
 11
6258.0187553361
 21
5172.6956607691
 31
0.0
  0
LINE
  5
8C
330
1F
100
AcDbEntity
  8
0
  6
SLD-Plná
 62
     7
370
    25
100
AcDbLine
 10
6536.5187553361
 20
5263.5534273078
 30
0.0
 11
6536.5187553361
 21
5264.5534273078
 31
0.0
  0
LINE
  5
8D
330
1F
100
AcDbEntity
  8
0
  6
SLD-Plná
 62
     7
370
    25
100
AcDbLine
 10
6524.5187553361
 20
5263.5534273078
 30
0.0
 11
6536.5187553361
 21
5263.5534273078
 31
0.0
  0
LINE
  5
8E
330
1F
100
AcDbEntity
  8
0
  6
SLD-Plná
 62
     7
370
    25
100
AcDbLine
 10
6524.5187553361
 20
5263.5534273078
 30
0.0
 11
6524.5187553361
 21
5264.5534273078
 31
0.0
  0
LINE
  5
8F
330
1F
100
AcDbEntity
  8
0
  6
SLD-Plná
 62
     7
370
    25
100
AcDbLine
 10
6524.5187553361
 20
5264.5534273078
 30
0.0
 11
6536.5187553361
 21
5264.5534273078
 31
0.0
  0
LINE
  5
90
330
1F
100
AcDbEntity
  8
0
  6
SLD-Plná
 62
     7
370
    25
100
AcDbLine
 10
6023.5187553361
 20
5263.5534273078
 30
0.0
 11
6524.5187553361
 21
5263.5534273078
 31
0.0
  0
LINE
  5
91
330
1F
100
AcDbEntity
  8
0
  6
SLD-Plná
 62
     7
370
    25
100
AcDbLine
 10
6023.5187553361
 20
5263.5534273078
 30
0.0
 11
6023.5187553361
 21
5264.5534273078
 31
0.0
  0
LINE
  5
92
330
1F
100
AcDbEntity
  8
0
  6
SLD-Plná
 62
     7
370
    25
100
AcDbLine
 10
6023.5187553361
 20
5264.5534273078
 30
0.0
 11
6524.5187553361
 21
5264.5534273078
 31
0.0
  0
LINE
  5
93
330
1F
100
AcDbEntity
  8
0
  6
SLD-Plná
 62
     7
370
    25
100
AcDbLine
 10
6011.5187553361
 20
5263.5534273078
 30
0.0
 11
6011.5187553361
 21
5264.5534273078
 31
0.0
  0
LINE
  5
94
330
1F
100
AcDbEntity
  8
0
  6
SLD-Plná
 62
     7
370
    25
100
AcDbLine
 10
6011.5187553361
 20
5263.5534273078
 30
0.0
 11
6023.5187553361
 21
5263.5534273078
 31
0.0
  0
LINE
  5
95
330
1F
100
AcDbEntity
  8
0
  6
SLD-Plná
 62
     7
370
    25
100
AcDbLine
 10
6011.5187553361
 20
5264.5534273078
 30
0.0
 11
6023.5187553361
 21
5264.5534273078
 31
0.0
  0
SPLINE
  5
96
330
1F
100
AcDbEntity
  8
0
  6
SLD-Plná
 62
     7
370
    25
100
AcDbSpline
210
0.0
220
0.0
230
1.0
 70
     8
 71
     3
 72
    10
 73
     6
 74
     0
 42
0.00000001
 43
0.00000001
 40
0.0
 40
0.0
 40
0.0
 40
0.0
 40
0.0000125331823417
 40
0.3612979301263581
 40
1.0
 40
1.0
 40
1.0
 40
1.0
 10
6204.431061829674
 20
5182.658756910127
 30
0.0
 10
6204.431079199391
 20
5182.658757420036
 30
0.0
 10
6204.931801429273
 20
5182.673456753518
 30
0.0
 10
6206.39342958553
 20
5182.712477222589
 30
0.0
 10
6207.996842229701
 20
5182.72064409485
 30
0.0
 10
6209.020958039824
 20
5182.725860358443
 30
0.0
  0
SPLINE
  5
97
330
1F
100
AcDbEntity
  8
0
  6
SLD-Plná
 62
     7
370
    25
100
AcDbSpline
210
0.0
220
0.0
230
1.0
 70
     8
 71
     3
 72
    12
 73
     8
 74
     0
 42
0.00000001
 43
0.00000001
 40
0.0
 40
0.0
 40
0.0
 40
0.0
 40
0.2191412385911321
 40
0.5425591192197166
 40
0.8651712806005138
 40
0.9999937277325968
 40
1.0
 40
1.0
 40
1.0
 40
1.0
 10
6199.839625989308
 20
5182.639775787435
 30
0.0
 10
6199.887148135567
 20
5182.638171959162
 30
0.0
 10
6200.004805469184
 20
5182.634201133493
 30
0.0
 10
6201.127355097806
 20
5182.620754678267
 30
0.0
 10
6202.829391509148
 20
5182.62985858808
 30
0.0
 10
6204.051826890548
 20
5182.648329532971
 30
0.0
 10
6204.431044188386
 20
5182.658756425065
 30
0.0
 10
6204.431061829674
 20
5182.658756910127
 30
0.0
  0
LINE
  5
98
330
1F
100
AcDbEntity
  8
0
  6
SLD-Plná
 62
     7
370
    25
100
AcDbLine
 10
6199.8299093469
 20
5182.5910651828
 30
0.0
 11
6199.8299264527
 21
5182.5911659765
 31
0.0
  0
SPLINE
  5
99
330
1F
100
AcDbEntity
  8
0
  6
SLD-Plná
 62
     7
370
    25
100
AcDbSpline
210
0.0
220
0.0
230
1.0
 70
     8
 71
     3
 72
    12
 73
     8
 74
     0
 42
0.00000001
 43
0.00000001
 40
0.0
 40
0.0
 40
0.0
 40
0.0
 40
0.0000062754087265
 40
0.0363157081064643
 40
0.356707768615548
 40
0.6771779874840602
 40
1.0
 40
1.0
 40
1.0
 40
1.0
 10
6343.606448842526
 20
5182.658756910127
 30
0.0
 10
6343.606466477176
 20
5182.658756425245
 30
0.0
 10
6343.708517964413
 20
5182.655950424839
 30
0.0
 10
6344.695883518189
 20
5182.632857820275
 30
0.0
 10
6346.329517967338
 20
5182.623866823074
 30
0.0
 10
6347.898339730817
 20
5182.627238604131
 30
0.0
 10
6348.097793306662
 20
5182.635586553323
 30
0.0
 10
6348.197884682892
 20
5182.639775787435
 30
0.0
  0
SPLINE
  5
9A
330
1F
100
AcDbEntity
  8
0
  6
SLD-Plná
 62
     7
370
    25
100
AcDbSpline
210
0.0
220
0.0
230
1.0
 70
     8
 71
     3
 72
    10
 73
     6
 74
     0
 42
0.00000001
 43
0.00000001
 40
0.0
 40
0.0
 40
0.0
 40
0.0
 40
0.420432578636323
 40
0.9999874675823761
 40
1.0
 40
1.0
 40
1.0
 40
1.0
 10
6339.016552632376
 20
5182.725860358443
 30
0.0
 10
6339.688264151916
 20
5182.723816623423
 30
0.0
 10
6341.285911754654
 20
5182.718955655194
 30
0.0
 10
6342.802858720615
 20
5182.682347320059
 30
0.0
 10
6343.606431466274
 20
5182.658757420228
 30
0.0
 10
6343.606448842526
 20
5182.658756910127
 30
0.0
  0
SPLINE
  5
9B
330
1F
100
AcDbEntity
  8
0
  6
SLD-Plná
 62
     7
370
    25
100
AcDbSpline
210
0.0
220
0.0
230
1.0
 70
     8
 71
     3
 72
    11
 73
     7
 74
     0
 42
0.00000001
 43
0.00000001
 40
0.0
 40
0.0
 40
0.0
 40
0.0
 40
0.1324734469208631
 40
0.1987034636580531
 40
0.2649301104778226
 40
1.0
 40
1.0
 40
1.0
 40
1.0
 10
6209.020958039824
 20
5182.725860358443
 30
0.0
 10
6214.761276167014
 20
5182.717162796294
 30
0.0
 10
6223.371462743145
 20
5182.704116893399
 30
0.0
 10
6234.851357636702
 20
5182.679440827181
 30
0.0
 10
6272.442845382437
 20
5182.600198968996
 30
0.0
 10
6307.164562892513
 20
5182.665738045105
 30
0.0
 10
6339.016552632376
 20
5182.725860358443
 30
0.0
  0
LWPOLYLINE
  5
9C
330
1F
100
AcDbEntity
  8
0
  6
SLD-Plná
 62
     7
370
    25
100
AcDbPolyline
 90
        9
 70
   128
 43
0.0
 10
6209.0209580398
 20
5182.7258603584
 10
6209.0208163246
 20
5182.6821683059
 10
6209.0206247148
 20
5182.5912118531
 10
6209.0203878489
 20
5182.4551929747
 10
6209.0201114614
 20
5182.2774045665
 10
6209.0198022432
 20
5182.0621507275
 10
6209.0194676804
 20
5181.8146425611
 10
6209.0191158724
 20
5181.5408720194
 10
6209.0187553361
 20
5181.2474668433
  0
SPLINE
  5
9D
330
1F
100
AcDbEntity
  8
0
  6
SLD-Plná
 62
     7
370
    25
100
AcDbSpline
210
0.0
220
0.0
230
1.0
 70
     8
 71
     3
 72
    12
 73
     8
 74
     0
 42
0.00000001
 43
0.00000001
 40
0.0
 40
0.0
 40
0.0
 40
0.0
 40
0.211554363872228
 40
0.4229576480542142
 40
0.6389947374498494
 40
0.8550452538122578
 40
1.0
 40
1.0
 40
1.0
 40
1.0
 10
6209.0187553361
 20
5181.247466843293
 30
0.0
 10
6208.208665271178
 20
5181.241807716922
 30
0.0
 10
6206.589063660033
 20
5181.230493505597
 30
0.0
 10
6204.419168856942
 20
5181.142483194703
 30
0.0
 10
6202.750082337257
 20
5181.140969571908
 30
0.0
 10
6201.845042284225
 20
5181.152323804378
 30
0.0
 10
6201.750897553182
 20
5181.156564172261
 30
0.0
 10
6201.713095540278
 20
5181.158266810737
 30
0.0
  0
ARC
  5
9E
330
1F
100
AcDbEntity
  8
0
  6
SLD-Plná
 62
     7
370
    25
100
AcDbCircle
 10
6199.7812446725
 20
5180.640628766
 30
0.0
 40
1.999999230182297
100
AcDbArc
 50
15.0000045605
 51
72.9048857503
  0
ARC
  5
9F
330
1F
100
AcDbEntity
  8
0
  6
SLD-Plná
 62
     7
370
    25
100
AcDbCircle
 10
6348.2562658558
 20
5180.6406288736
 30
0.0
 40
1.999999063336092
100
AcDbArc
 50
115.1188534187
 51
164.999997349
  0
SPLINE
  5
A0
330
1F
100
AcDbEntity
  8
0
  6
SLD-Plná
 62
     7
370
    25
100
AcDbSpline
210
0.0
220
0.0
230
1.0
 70
     8
 71
     3
 72
    12
 73
     8
 74
     0
 42
0.00000001
 43
0.00000001
 40
0.0
 40
0.0
 40
0.0
 40
0.0
 40
0.2139974080456437
 40
0.4279046308373765
 40
0.6434516801829234
 40
0.8607009148488306
 40
1.0
 40
1.0
 40
1.0
 40
1.0
 10
6346.324415131922
 20
5181.158266810737
 30
0.0
 10
6346.242966486556
 20
5181.154072532324
 30
0.0
 10
6346.080103520849
 20
5181.145685743096
 30
0.0
 10
6344.822728020709
 20
5181.141305071009
 30
0.0
 10
6342.96585844055
 20
5181.15802711861
 30
0.0
 10
6340.911544697979
 20
5181.242120949551
 30
0.0
 10
6339.550499223134
 20
5181.245965014101
 30
0.0
 10
6339.0187553361
 20
5181.247466843293
 30
0.0
  0
LWPOLYLINE
  5
A1
330
1F
100
AcDbEntity
  8
0
  6
SLD-Plná
 62
     7
370
    25
100
AcDbPolyline
 90
        9
 70
   128
 43
0.0
 10
6339.0165526324
 20
5182.7258603584
 10
6339.0166943476
 20
5182.6821683059
 10
6339.0168859574
 20
5182.5912118531
 10
6339.0171228233
 20
5182.4551929747
 10
6339.0173992108
 20
5182.2774045665
 10
6339.017708429
 20
5182.0621507275
 10
6339.0180429918
 20
5181.8146425611
 10
6339.0183947998
 20
5181.5408720194
 10
6339.0187553361
 20
5181.2474668433
  0
SPLINE
  5
A2
330
1F
100
AcDbEntity
  8
0
  6
SLD-Plná
 62
     7
370
    25
100
AcDbSpline
210
0.0
220
0.0
230
1.0
 70
     8
 71
     3
 72
    11
 73
     7
 74
     0
 42
0.00000001
 43
0.00000001
 40
0.0
 40
0.0
 40
0.0
 40
0.0
 40
0.7350914674895086
 40
0.8013185996877162
 40
0.867545731475432
 40
1.0
 40
1.0
 40
1.0
 40
1.0
 10
6339.0187553361
 20
5181.247466843293
 30
0.0
 10
6307.164748844753
 20
5181.185688029757
 30
0.0
 10
6272.440896093119
 20
5181.118343332477
 30
0.0
 10
6234.847306970652
 20
5181.199498069065
 30
0.0
 10
6223.367959481554
 20
5181.224852207756
 30
0.0
 10
6214.758437037174
 20
5181.238420989011
 30
0.0
 10
6209.0187553361
 20
5181.247466843293
 30
0.0
  0
SPLINE
  5
A3
330
1F
100
AcDbEntity
  8
0
  6
SLD-Plná
 62
     7
370
    25
100
AcDbSpline
210
0.0
220
0.0
230
1.0
 70
     8
 71
     3
 72
    12
 73
     8
 74
     0
 42
0.00000001
 43
0.00000001
 40
0.0
 40
0.0
 40
0.0
 40
0.0
 40
0.2138766980443591
 40
0.4271418409862331
 40
0.6396334240604802
 40
0.8511977894758249
 40
0.9999999999999999
 40
0.9999999999999999
 40
0.9999999999999999
 40
0.9999999999999999
 10
6339.0187553361
 20
5177.507051557508
 30
0.0
 10
6339.732057214402
 20
5177.531361493946
 30
0.0
 10
6341.156621368715
 20
5177.579911855435
 30
0.0
 10
6343.060264229637
 20
5177.646657254255
 30
0.0
 10
6344.500017670059
 20
5177.697963134359
 30
0.0
 10
6345.288265567564
 20
5177.726429271375
 30
0.0
 10
6345.371592392966
 20
5177.729447278089
 30
0.0
 10
6345.405999623392
 20
5177.730693470438
 30
0.0
  0
LINE
  5
A4
330
1F
100
AcDbEntity
  8
0
  6
SLD-Plná
 62
     7
370
    25
100
AcDbLine
 10
6339.0187553361
 20
5181.2474668433
 30
0.0
 11
6339.0187553361
 21
5177.5070515575
 31
0.0
  0
LINE
  5
A5
330
1F
100
AcDbEntity
  8
0
  6
SLD-Plná
 62
     7
370
    25
100
AcDbLine
 10
6346.3244151319
 20
5181.1582668107
 30
0.0
 11
6345.4059996234
 21
5177.7306934704
 31
0.0
  0
SPLINE
  5
A6
330
1F
100
AcDbEntity
  8
0
  6
SLD-Plná
 62
     7
370
    25
100
AcDbSpline
210
0.0
220
0.0
230
1.0
 70
     8
 71
     3
 72
    12
 73
     8
 74
     0
 42
0.00000001
 43
0.00000001
 40
0.0
 40
0.0
 40
0.0
 40
0.0
 40
0.2105386253213577
 40
0.4212043422481545
 40
0.6325807363061069
 40
0.845146771396744
 40
1.0
 40
1.0
 40
1.0
 40
1.0
 10
6202.631511048809
 20
5177.730693470438
 30
0.0
 10
6202.699632199557
 20
5177.728223207306
 30
0.0
 10
6202.835915622372
 20
5177.723281189867
 30
0.0
 10
6203.900795736408
 20
5177.684933773653
 30
0.0
 10
6205.477020545797
 20
5177.629024275087
 30
0.0
 10
6207.281901477196
 20
5177.566134453808
 30
0.0
 10
6208.503780047089
 20
5177.524569572304
 30
0.0
 10
6209.0187553361
 20
5177.507051557508
 30
0.0
  0
LINE
  5
A7
330
1F
100
AcDbEntity
  8
0
  6
SLD-Plná
 62
     7
370
    25
100
AcDbLine
 10
6201.7130955403
 20
5181.1582668107
 30
0.0
 11
6202.6315110488
 21
5177.7306934704
 31
0.0
  0
LINE
  5
A8
330
1F
100
AcDbEntity
  8
0
  6
SLD-Plná
 62
     7
370
    25
100
AcDbLine
 10
6209.0187553361
 20
5181.2474668433
 30
0.0
 11
6209.0187553361
 21
5177.5070515575
 31
0.0
  0
ARC
  5
A9
330
1F
100
AcDbEntity
  8
0
  6
SLD-Plná
 62
     7
370
    25
100
AcDbCircle
 10
6274.0187553361
 20
6071.6475606499
 30
0.0
 40
896.4999999999999
100
AcDbArc
 50
265.842168026
 51
274.157831974
  0
SPLINE
  5
AA
330
1F
100
AcDbEntity
  8
0
  6
SLD-Plná
 62
     7
370
    25
100
AcDbSpline
210
0.0
220
0.0
230
1.0
 70
     8
 71
     3
 72
    12
 73
     8
 74
     0
 42
0.00000001
 43
0.00000001
 40
0.0
 40
0.0
 40
0.0
 40
0.0
 40
0.1489160798519752
 40
0.360652694380362
 40
0.5733148967921916
 40
0.7865804978564922
 40
1.0
 40
1.0
 40
1.0
 40
1.0
 10
6342.290761477485
 20
5175.146644863235
 30
0.0
 10
6342.274321936336
 20
5175.145393765532
 30
0.0
 10
6342.234507801987
 20
5175.142363792156
 30
0.0
 10
6341.858256157825
 20
5175.113785891835
 30
0.0
 10
6341.174276608918
 20
5175.062298621565
 30
0.0
 10
6340.275285279138
 20
5174.995362145838
 30
0.0
 10
6339.606855442626
 20
5174.946546475263
 30
0.0
 10
6339.272519976368
 20
5174.922129836311
 30
0.0
  0
ARC
  5
AB
330
1F
100
AcDbEntity
  8
0
  6
SLD-Plná
 62
     7
370
    25
100
AcDbCircle
 10
6368.8920312864
 20
5179.1348272429
 30
0.0
 40
29.91759130823094
100
AcDbArc
 50
183.1189260013
 51
188.0947228146
  0
ARC
  5
AC
330
1F
100
AcDbEntity
  8
0
  6
SLD-Plná
 62
     7
370
    25
100
AcDbCircle
 10
6342.0252592314
 20
5178.6365601283
 30
0.0
 40
3.500000000000267
100
AcDbArc
 50
274.3505101557
 51
345.0
  0
ARC
  5
AD
330
1F
100
AcDbEntity
  8
0
  6
SLD-Plná
 62
     7
370
    25
100
AcDbCircle
 10
6179.1454793858
 20
5179.1348272429
 30
0.0
 40
29.91759130823184
100
AcDbArc
 50
351.9052771854
 51
356.8810739987
  0
SPLINE
  5
AE
330
1F
100
AcDbEntity
  8
0
  6
SLD-Plná
 62
     7
370
    25
100
AcDbSpline
210
0.0
220
0.0
230
1.0
 70
     8
 71
     3
 72
    12
 73
     8
 74
     0
 42
0.00000001
 43
0.00000001
 40
0.0
 40
0.0
 40
0.0
 40
0.0
 40
0.1544612094834635
 40
0.3669357317394008
 40
0.578460474542586
 40
0.7893093633729186
 40
1.0
 40
1.0
 40
1.0
 40
1.0
 10
6208.764990695832
 20
5174.922129836311
 30
0.0
 10
6208.523773526814
 20
5174.93972341019
 30
0.0
 10
6207.950741639273
 20
5174.981518440322
 30
0.0
 10
6207.099804408967
 20
5175.044609740727
 30
0.0
 10
6206.352230570475
 20
5175.10070874189
 30
0.0
 10
6205.844474312891
 20
5175.139201655343
 30
0.0
 10
6205.779316080318
 20
5175.144164414969
 30
0.0
 10
6205.746749194715
 20
5175.146644863235
 30
0.0
  0
ARC
  5
AF
330
1F
100
AcDbEntity
  8
0
  6
SLD-Plná
 62
     7
370
    25
100
AcDbCircle
 10
6206.0122514408
 20
5178.6365601283
 30
0.0
 40
3.500000000000267
100
AcDbArc
 50
195.0
 51
265.6494898443
  0
ARC
  5
B0
330
1F
100
AcDbEntity
  8
0
  6
SLD-Plná
 62
     7
370
    25
100
AcDbCircle
 10
6274.0187553361
 20
6072.5534273078
 30
0.0
 40
900.0000000000008
100
AcDbArc
 50
265.842168026
 51
274.157831974
  0
LINE
  5
B1
330
1F
100
AcDbEntity
  8
0
  6
SLD-Plná
 62
     7
370
    25
100
AcDbLine
 10
6296.0187553361
 20
5162.7954818777
 30
0.0
 11
6290.0187553361
 21
5162.7954818777
 31
0.0
  0
LINE
  5
B2
330
1F
100
AcDbEntity
  8
0
  6
SLD-Plná
 62
     7
370
    25
100
AcDbLine
 10
6258.0187553361
 20
5162.7954818777
 30
0.0
 11
6252.0187553361
 21
5162.7954818777
 31
0.0
  0
SPLINE
  5
B3
330
1F
100
AcDbEntity
  8
0
  6
SLD-Plná
 62
     8
370
    25
100
AcDbSpline
210
0.0
220
0.0
230
1.0
 70
     8
 71
     3
 72
     9
 73
     5
 74
     0
 42
0.00000001
 43
0.00000001
 40
0.0
 40
0.0
 40
0.0
 40
0.0
 40
0.3135520893364857
 40
1.0
 40
1.0
 40
1.0
 40
1.0
 10
6199.829926452746
 20
5182.59116597652
 30
0.0
 10
6199.830218509699
 20
5182.593090814255
 30
0.0
 10
6199.831149956062
 20
5182.599229627549
 30
0.0
 10
6199.836175924071
 20
5182.623271971002
 30
0.0
 10
6199.839625989308
 20
5182.639775787435
 30
0.0
  0
SPLINE
  5
B4
330
1F
100
AcDbEntity
  8
0
  6
SLD-Plná
 62
     8
370
    25
100
AcDbSpline
210
0.0
220
0.0
230
1.0
 70
     8
 71
     3
 72
    12
 73
     8
 74
     0
 42
0.00000001
 43
0.00000001
 40
0.0
 40
0.0
 40
0.0
 40
0.0
 40
0.253086188743251
 40
0.4331780496120164
 40
0.6132535713646619
 40
0.9733579054769735
 40
1.0
 40
1.0
 40
1.0
 40
1.0
 10
6348.197884682892
 20
5182.639775787435
 30
0.0
 10
6348.198870087333
 20
5182.636203405401
 30
0.0
 10
6348.200556688945
 20
5182.630088976598
 30
0.0
 10
6348.203273473567
 20
5182.615905970156
 30
0.0
 10
6348.205924973126
 20
5182.601128435095
 30
0.0
 10
6348.208188205713
 20
5182.587603836255
 30
0.0
 10
6348.207639149316
 20
5182.590842101484
 30
0.0
 10
6348.20760132605
 20
5182.591065178316
 30
0.0
  0
LWPOLYLINE
  5
B5
330
1F
100
AcDbEntity
  8
0
  6
SLD-Plná
 62
     8
370
    25
100
AcDbPolyline
 90
        3
 70
   128
 43
0.0
 10
6200.3691620889
 20
5182.5522641999
 10
6200.1573322509
 20
5182.6049492914
 10
6199.8396259893
 20
5182.6397757874
  0
ARC
  5
B6
330
1F
100
AcDbEntity
  8
0
  6
SLD-Plná
 62
     8
370
    25
100
AcDbCircle
 10
6348.2562664025
 20
5180.6406278824
 30
0.0
 40
2.000000192837518
100
AcDbArc
 50
91.6727505234
 51
115.1188555458
  0
LINE
  5
B7
330
1F
100
AcDbEntity
  8
0
  6
SLD-Plná
 62
     7
370
    25
100
AcDbLine
 10
6536.5187553361
 20
4955.8113882975
 30
0.0
 11
6536.5187553361
 21
4644.8113882975
 31
0.0
  0
ARC
  5
B8
330
1F
100
AcDbEntity
  8
0
  6
SLD-Plná
 62
     7
370
    25
100
AcDbCircle
 10
6524.5187553361
 20
4644.8113882975
 30
0.0
 40
12.00000000000091
100
AcDbArc
 50
270.0
 51
0.0
  0
LINE
  5
B9
330
1F
100
AcDbEntity
  8
0
  6
SLD-Plná
 62
     7
370
    25
100
AcDbLine
 10
6023.5187553361
 20
4632.8113882974
 30
0.0
 11
6524.5187553361
 21
4632.8113882974
 31
0.0
  0
ARC
  5
BA
330
1F
100
AcDbEntity
  8
0
  6
SLD-Plná
 62
     7
370
    25
100
AcDbCircle
 10
6023.5187553361
 20
4644.8113882975
 30
0.0
 40
12.00000000000091
100
AcDbArc
 50
180.0
 51
270.0
  0
LINE
  5
BB
330
1F
100
AcDbEntity
  8
0
  6
SLD-Plná
 62
     7
370
    25
100
AcDbLine
 10
6011.5187553361
 20
4955.8113882975
 30
0.0
 11
6011.5187553361
 21
4644.8113882975
 31
0.0
  0
ARC
  5
BC
330
1F
100
AcDbEntity
  8
0
  6
SLD-Plná
 62
     7
370
    25
100
AcDbCircle
 10
6023.5187553361
 20
4955.8113882975
 30
0.0
 40
12.0
100
AcDbArc
 50
90.0
 51
180.0
  0
LINE
  5
BD
330
1F
100
AcDbEntity
  8
0
  6
SLD-Plná
 62
     7
370
    25
100
AcDbLine
 10
6023.5187553361
 20
4967.8113882974
 30
0.0
 11
6524.5187553361
 21
4967.8113882974
 31
0.0
  0
ARC
  5
BE
330
1F
100
AcDbEntity
  8
0
  6
SLD-Plná
 62
     7
370
    25
100
AcDbCircle
 10
6524.5187553361
 20
4955.8113882975
 30
0.0
 40
12.0
100
AcDbArc
 50
0.0
 51
90.0
  0
SPLINE
  5
BF
330
1F
100
AcDbEntity
  8
0
  6
SLD-Plná
 62
     7
370
    25
100
AcDbSpline
210
0.0
220
0.0
230
1.0
 70
    11
 71
     3
 72
   295
 73
   291
 74
     0
 42
0.00000001
 43
0.00000001
 40
0.0
 40
0.0
 40
0.0
 40
0.0
 40
0.0019175383165326
 40
0.0038713426836534
 40
0.0064727250334171
 40
0.0090579682361282
 40
0.0116434769448196
 40
0.0142606764351345
 40
0.0182896596486764
 40
0.0223169776682132
 40
0.0252421875904914
 40
0.0282078595493657
 40
0.0312139937259839
 40
0.0338819100956808
 40
0.0365635169802475
 40
0.0435284397884957
 40
0.050866086143889
 40
0.0576315328969203
 40
0.0584089371572652
 40
0.0591899779560634
 40
0.0599746552943096
 40
0.0607629691729848
 40
0.0615549195930563
 40
0.0623505065554784
 40
0.0631497300611921
 40
0.0645584233023148
 40
0.0666937265066004
 40
0.0692518083480537
 40
0.0724047042572763
 40
0.0761524142365711
 40
0.0804949382872947
 40
0.0854322764103135
 40
0.0884638187566801
 40
0.0916827114332461
 40
0.094995164282256
 40
0.0974444138365714
 40
0.0998329049710412
 40
0.1021606376987907
 40
0.1044276120340008
 40
0.1118835500694537
 40
0.1185951987925276
 40
0.1205508557586824
 40
0.1224329953176486
 40
0.1242416175169889
 40
0.1259767224103117
 40
0.1281930470608692
 40
0.1360658704263906
 40
0.1436458974592447
 40
0.1509331356546239
 40
0.1579275934489696
 40
0.1646240613335843
 40
0.171791604134747
 40
0.1774788587610116
 40
0.1834331993543523
 40
0.189633608226358
 40
0.193500740885765
 40
0.1981156921096232
 40
0.2034784621509469
 40
0.2095890511698579
 40
0.2164474592741006
 40
0.2229449874601158
 40
0.2289544279619045
 40
0.2345193230432644
 40
0.2396396727600782
 40
0.2415296124855682
 40
0.2433509425472526
 40
0.2451036629509621
 40
0.2467877737032402
 40
0.2484032748114638
 40
0.2499501662839917
 40
0.2514284481303462
 40
0.2528381203614404
 40
0.2584989554660629
 40
0.2640031273822389
 40
0.2693506367334368
 40
0.2745414841995751
 40
0.2795756705240486
 40
0.2844531965218837
 40
0.2934481067348068
 40
0.2944350684500338
 40
0.2954174543832527
 40
0.2963952645445312
 40
0.2973684989440789
 40
0.2983371575922499
 40
0.299301240499546
 40
0.3002607476766189
 40
0.3011460202063193
 40
0.3018337076705254
 40
0.3026208048506412
 40
0.3034051272141908
 40
0.3041861111785849
 40
0.3061334273396297
 40
0.3080907853033229
 40
0.3100471951731106
 40
0.3119991301830483
 40
0.3127858108745814
 40
0.3135283878938342
 40
0.3142427158014556
 40
0.3149697439010485
 40
0.3159044163301228
 40
0.3206439034088985
 40
0.3258775486688696
 40
0.3316053524254864
 40
0.3399227092666638
 40
0.3410756460563599
 40
0.3422433481153659
 40
0.3434258154444332
 40
0.3446230480442848
 40
0.3458350459156176
 40
0.3470618090591032
 40
0.3532842825034563
 40
0.3588416694057499
 40
0.3637339697667801
 40
0.3679611835877193
 40
0.3715233108703963
 40
0.3744203516178995
 40
0.3768754465278276
 40
0.3771351679039915
 40
0.377380582530323
 40
0.3776116904069131
 40
0.3778284915338708
 40
0.3780309859113284
 40
0.378219173539448
 40
0.3876374755728857
 40
0.3965158112570281
 40
0.4048541827679744
 40
0.4124127530936093
 40
0.4153643000680484
 40
0.418476874371864
 40
0.4217504760919398
 40
0.4251851053029389
 40
0.4287807620694937
 40
0.4325374464479249
 40
0.436455158487609
 40
0.440533898232074
 40
0.4579820231511408
 40
0.4602668966524127
 40
0.4625517701537019
 40
0.4648366436550178
 40
0.4671215171563698
 40
0.4694063906577677
 40
0.4716912641592207
 40
0.4761852466384062
 40
0.481378140839724
 40
0.4872699472040696
 40
0.4885443963773592
 40
0.4896894967245903
 40
0.4907052482523719
 40
0.4920406208261548
 40
0.4930252625912945
 40
0.4939503564002351
 40
0.4950654015624152
 40
0.4970093324907409
 40
0.4989682545936677
 40
0.5009088424412579
 40
0.50285604445136
 40
0.505118301768393
 40
0.5074189844788821
 40
0.5096977618751896
 40
0.511964186963254
 40
0.5142295905175323
 40
0.5165192079480871
 40
0.5218171039035887
 40
0.5271515665711377
 40
0.5336836463817285
 40
0.5395207032624195
 40
0.5456271609643261
 40
0.5565692227679052
 40
0.5616550907506057
 40
0.5626735868382209
 40
0.5636984814179663
 40
0.5647297744916724
 40
0.5650257594362434
 40
0.5658519002168835
 40
0.5675370430383662
 40
0.5700811879018303
 40
0.5734843348075522
 40
0.5760972227448196
 40
0.5790579710133091
 40
0.5823665796130315
 40
0.5860230485439942
 40
0.5900273778062027
 40
0.5943795673996611
 40
0.5978916673425905
 40
0.6007378141802626
 40
0.6091368528476842
 40
0.6167074872539464
 40
0.6202509084226466
 40
0.6235786897186727
 40
0.6266908314087303
 40
0.6306692531033827
 40
0.6347188813288756
 40
0.6386924940673332
 40
0.6425900923074459
 40
0.6509979148157381
 40
0.6589836721019252
 40
0.6668068263769529
 40
0.6752536695406126
 40
0.6778497184360065
 40
0.6804994332319747
 40
0.683202814105769
 40
0.6859598612242906
 40
0.6887705747448808
 40
0.6906174575334821
 40
0.6951346884533585
 40
0.700453733216483
 40
0.7059850175542131
 40
0.7121789583124909
 40
0.7190355555850518
 40
0.72592028952341
 40
0.7322028625619463
 40
0.7384442231147078
 40
0.7439842344636616
 40
0.745131515145251
 40
0.746243450874144
 40
0.7473200416526106
 40
0.7483612874831516
 40
0.7493671883685317
 40
0.7503377443118177
 40
0.751272955316424
 40
0.7568391982544332
 40
0.7622490468536353
 40
0.767502501666479
 40
0.7725995632962664
 40
0.7775402324035905
 40
0.782324509713826
 40
0.7876237802199715
 40
0.7927990422572468
 40
0.7978502971165397
 40
0.799791023343305
 40
0.8017315734942331
 40
0.8036844127822187
 40
0.8055925460979142
 40
0.8075139940341334
 40
0.8094422243253986
 40
0.8113745244178988
 40
0.8136114305716997
 40
0.8159652520584947
 40
0.8181750955882184
 40
0.820369072214424
 40
0.8226159519160752
 40
0.8255195338284357
 40
0.8285259480962851
 40
0.8311791071029939
 40
0.8349028480881132
 40
0.8389142693816547
 40
0.843213371027315
 40
0.8473117695075288
 40
0.8755624591727911
 40
0.881360698919998
 40
0.8871647842060493
 40
0.892974715843385
 40
0.8987904946419956
 40
0.9046121214094307
 40
0.9097891100350294
 40
0.9132199571690617
 40
0.9168421326343709
 40
0.9206556365824711
 40
0.9246604691431612
 40
0.9288566304284855
 40
0.9332441205358298
 40
0.9378229395503723
 40
0.955255879119175
 40
0.957538764061628
 40
0.9598216490046221
 40
0.962104533948455
 40
0.964387418893424
 40
0.9666703038398271
 40
0.9689531887879614
 40
0.9715340059492967
 40
0.9743809269085163
 40
0.9774939517708521
 40
0.980873080616675
 40
0.9845183135087546
 40
0.9871615603078184
 40
0.989443817616132
 40
0.989906545716468
 40
0.9903510815131241
 40
0.9907774250068968
 40
0.9911855761986889
 40
0.9915755350895294
 40
0.9919473016805987
 40
0.9923008759732594
 40
0.9927872615980489
 40
0.993271127409997
 40
0.9937502867159888
 40
0.9942318665593471
 40
0.996157994105362
 40
0.9980783915145928
 40
0.9999999999999999
 40
0.9999999999999999
 40
0.9999999999999999
 40
0.9999999999999999
 10
6519.7638750477
 20
4646.37717411877
 30
0.0
 10
6518.903440341303
 20
4645.80883598835
 30
0.0
 10
6517.166297684675
 20
4644.661410852656
 30
0.0
 10
6513.795078776835
 20
4643.636221594649
 30
0.0
 10
6509.949772629799
 20
4643.572172334932
 30
0.0
 10
6505.791546811331
 20
4643.58622584088
 30
0.0
 10
6501.617571438455
 20
4643.576445275533
 30
0.0
 10
6496.67210430807
 20
4643.57064041312
 30
0.0
 10
6490.953531773435
 20
4643.559786085571
 30
0.0
 10
6485.070184354886
 20
4643.547149344186
 30
0.0
 10
6479.756451671844
 20
4643.533918016027
 30
0.0
 10
6474.98983904842
 20
4643.520890382124
 30
0.0
 10
6470.361072594584
 20
4643.50710677371
 30
0.0
 10
6465.884499105363
 20
4643.492765823199
 30
0.0
 10
6459.286994678469
 20
4643.470247352829
 30
0.0
 10
6450.187678421036
 20
4643.436021052038
 30
0.0
 10
6438.900454275168
 20
4643.38859535064
 30
0.0
 10
6430.928216465123
 20
4643.352125399478
 30
0.0
 10
6426.468688826121
 20
4643.330941391141
 30
0.0
 10
6425.213360483986
 20
4643.324933157353
 30
0.0
 10
6423.952187525904
 20
4643.318852327945
 30
0.0
 10
6422.685169955776
 20
4643.312698085449
 30
0.0
 10
6421.412307758346
 20
4643.306473479343
 30
0.0
 10
6420.1336009911
 20
4643.300167056181
 30
0.0
 10
6418.524474413672
 20
4643.292218574169
 30
0.0
 10
6416.197597234834
 20
4643.280298154003
 30
0.0
 10
6412.928414746099
 20
4643.263193667202
 30
0.0
 10
6408.724778354744
 20
4643.241014274311
 30
0.0
 10
6403.657297673331
 20
4643.214113613904
 30
0.0
 10
6397.633804874345
 20
4643.182012050563
 30
0.0
 10
6390.654299984914
 20
4643.144704432237
 30
0.0
 10
6384.058481387274
 20
4643.10937092465
 30
0.0
 10
6378.06464706775
 20
4643.077213042776
 30
0.0
 10
6372.941342866055
 20
4643.049719751366
 30
0.0
 10
6368.130001704642
 20
4643.023813691882
 30
0.0
 10
6363.763545986486
 20
4643.000491398555
 30
0.0
 10
6359.924651167457
 20
4642.980296239989
 30
0.0
 10
6356.183408663696
 20
4642.960890577105
 30
0.0
 10
6349.72728310703
 20
4642.927924423527
 30
0.0
 10
6340.922469124558
 20
4642.884567540235
 30
0.0
 10
6332.284428678032
 20
4642.845103894786
 30
0.0
 10
6326.632547683899
 20
4642.821004414218
 30
0.0
 10
6323.607468506319
 20
4642.808568304959
 30
0.0
 10
6320.700548577496
 20
4642.797096517023
 30
0.0
 10
6317.614586110009
 20
4642.785472219979
 30
0.0
 10
6311.279707184033
 20
4642.763026219001
 30
0.0
 10
6301.813375121386
 20
4642.734735766164
 30
0.0
 10
6289.630251302214
 20
4642.709972936756
 30
0.0
 10
6277.917697892399
 20
4642.698233614301
 30
0.0
 10
6266.678510586864
 20
4642.699551559981
 30
0.0
 10
6255.503461085355
 20
4642.714341031942
 30
0.0
 10
6245.02877269948
 20
4642.738448116143
 30
0.0
 10
6234.951703606436
 20
4642.769151813894
 30
0.0
 10
6225.392799361834
 20
4642.803951228215
 30
0.0
 10
6216.809047832064
 20
4642.83962176921
 30
0.0
 10
6208.942892538933
 20
4642.875901284872
 30
0.0
 10
6201.5255128279
 20
4642.912209026083
 30
0.0
 10
6192.9062095522
 20
4642.956005689394
 30
0.0
 10
6183.084983107678
 20
4643.007381893197
 30
0.0
 10
6172.655817008708
 20
4643.063057768048
 30
0.0
 10
6162.280847411583
 20
4643.119611086723
 30
0.0
 10
6152.598872080889
 20
4643.171785670506
 30
0.0
 10
6143.654713558028
 20
4643.219123941858
 30
0.0
 10
6136.917569102654
 20
4643.254066043018
 30
0.0
 10
6132.18603421037
 20
4643.278171257528
 30
0.0
 10
6129.258703910504
 20
4643.292925511081
 30
0.0
 10
6126.441645563426
 20
4643.306958870929
 30
0.0
 10
6123.734859168458
 20
4643.320271229231
 30
0.0
 10
6121.138344727319
 20
4643.332863006871
 30
0.0
 10
6118.652102234149
 20
4643.344732925322
 30
0.0
 10
6116.276131709298
 20
4643.355885641384
 30
0.0
 10
6111.696111987522
 20
4643.376948339074
 30
0.0
 10
6104.959212591054
 20
4643.406561316732
 30
0.0
 10
6096.112600245307
 20
4643.442605646705
 30
0.0
 10
6087.517773001111
 20
4643.474639539212
 30
0.0
 10
6079.174730940857
 20
4643.502677434485
 30
0.0
 10
6071.08347400101
 20
4643.526721774026
 30
0.0
 10
6060.954163679529
 20
4643.552602057019
 30
0.0
 10
6052.993160197952
 20
4643.567950829094
 30
0.0
 10
6047.118995490686
 20
4643.576345712769
 30
0.0
 10
6045.540038161589
 20
4643.57843529362
 30
0.0
 10
6043.968435996997
 20
4643.58038497767
 30
0.0
 10
6042.404184855556
 20
4643.582054835526
 30
0.0
 10
6040.847300093982
 20
4643.583963624107
 30
0.0
 10
6039.297724802453
 20
4643.584188936628
 30
0.0
 10
6037.79298690136
 20
4643.589717291457
 30
0.0
 10
6036.435793262673
 20
4643.576873688229
 30
0.0
 10
6035.172748207833
 20
4643.657856844797
 30
0.0
 10
6033.973908934609
 20
4643.835065352326
 30
0.0
 10
6032.745999084133
 20
4644.126602088867
 30
0.0
 10
6030.959211037899
 20
4644.722950928251
 30
0.0
 10
6028.712751187059
 20
4645.89972410866
 30
0.0
 10
6026.339505941645
 20
4648.003777611556
 30
0.0
 10
6024.554900845877
 20
4650.630076415191
 30
0.0
 10
6023.693282463917
 20
4653.023277077793
 30
0.0
 10
6023.367043008695
 20
4654.861982074889
 30
0.0
 10
6023.278055045295
 20
4656.062694648143
 30
0.0
 10
6023.282710072875
 20
4657.232992517248
 30
0.0
 10
6023.280471144834
 20
4658.505896362708
 30
0.0
 10
6023.279289524226
 20
4661.935419966195
 30
0.0
 10
6023.273492800833
 20
4667.779300465511
 30
0.0
 10
6023.264571848344
 20
4676.191189260171
 30
0.0
 10
6023.250767895883
 20
4686.519917167915
 30
0.0
 10
6023.238246763258
 20
4694.662386710721
 30
0.0
 10
6023.228841789218
 20
4700.361752699694
 30
0.0
 10
6023.225696912984
 20
4702.238561475651
 30
0.0
 10
6023.222464763249
 20
4704.139101892114
 30
0.0
 10
6023.219144562257
 20
4706.063373957702
 30
0.0
 10
6023.215739795293
 20
4708.011377675904
 30
0.0
 10
6023.207496441323
 20
4712.651681776249
 30
0.0
 10
6023.195066029964
 20
4719.620051908872
 30
0.0
 10
6023.179274171655
 20
4728.552254035678
 30
0.0
 10
6023.165464878294
 20
4736.41548496895
 30
0.0
 10
6023.153652574803
 20
4743.209744734459
 30
0.0
 10
6023.143830619854
 20
4748.935033322138
 30
0.0
 10
6023.135801100287
 20
4753.710899611431
 30
0.0
 10
6023.13089971508
 20
4756.717483702216
 30
0.0
 10
6023.128430574172
 20
4758.303444310148
 30
0.0
 10
6023.127823801502
 20
4758.69789118209
 30
0.0
 10
6023.127259841081
 20
4759.06934329626
 30
0.0
 10
6023.1267390086
 20
4759.417800653111
 30
0.0
 10
6023.126260393553
 20
4759.743263251376
 30
0.0
 10
6023.118729926855
 20
4764.998483411629
 30
0.0
 10
6023.106705219961
 20
4774.901839188037
 30
0.0
 10
6023.095912884845
 20
4789.171711137118
 30
0.0
 10
6023.092752456072
 20
4802.445223933614
 30
0.0
 10
6023.096506546121
 20
4812.543421576108
 30
0.0
 10
6023.102068193086
 20
4819.841863111737
 30
0.0
 10
6023.106732366965
 20
4824.844605419759
 30
0.0
 10
6023.112476385466
 20
4830.106161140653
 30
0.0
 10
6023.119292297773
 20
4835.626530287004
 30
0.0
 10
6023.127180473484
 20
4841.405712861509
 30
0.0
 10
6023.136149999053
 20
4847.443708849722
 30
0.0
 10
6023.146162946697
 20
4853.74051831911
 30
0.0
 10
6023.169470319585
 20
4867.372592131084
 30
0.0
 10
6023.19201535399
 20
4880.129862306608
 30
0.0
 10
6023.212732616138
 20
4891.926058966425
 30
0.0
 10
6023.219195072003
 20
4895.598459791147
 30
0.0
 10
6023.225660787253
 20
4899.270860609328
 30
0.0
 10
6023.232145626524
 20
4902.943261397048
 30
0.0
 10
6023.238595614074
 20
4906.615662234369
 30
0.0
 10
6023.247342728369
 20
4911.471605095331
 30
0.0
 10
6023.2573910328
 20
4917.885538245308
 30
0.0
 10
6023.267280440301
 20
4926.231912963071
 30
0.0
 10
6023.273969886815
 20
4932.853396437023
 30
0.0
 10
6023.27733342781
 20
4937.306264703597
 30
0.0
 10
6023.279415539412
 20
4939.1467345746
 30
0.0
 10
6023.278318120965
 20
4941.019909090849
 30
0.0
 10
6023.289685715472
 20
4942.80684743688
 30
0.0
 10
6023.265171875218
 20
4944.546071710463
 30
0.0
 10
6023.408208794523
 20
4946.164216536394
 30
0.0
 10
6023.879477943348
 20
4948.252665759131
 30
0.0
 10
6024.96963597082
 20
4950.74178414248
 30
0.0
 10
6026.918557672108
 20
4953.233962242382
 30
0.0
 10
6029.417955063524
 20
4955.171811757024
 30
0.0
 10
6032.449499513886
 20
4956.539544701418
 30
0.0
 10
6035.925210068883
 20
4957.134682852228
 30
0.0
 10
6039.593974605273
 20
4957.011161688453
 30
0.0
 10
6043.260826805335
 20
4957.048534153571
 30
0.0
 10
6046.909881128798
 20
4957.044146147356
 30
0.0
 10
6050.564448626635
 20
4957.05193590772
 30
0.0
 10
6055.84322547891
 20
4957.0601116298
 30
0.0
 10
6062.766229911241
 20
4957.074915225209
 30
0.0
 10
6071.962161468614
 20
4957.098195790734
 30
0.0
 10
6081.446932809515
 20
4957.127039921318
 30
0.0
 10
6091.345289465512
 20
4957.161814046307
 30
0.0
 10
6103.606288102952
 20
4957.209976117743
 30
0.0
 10
6115.464811477589
 20
4957.262482143812
 30
0.0
 10
6124.597437317838
 20
4957.306322154087
 30
0.0
 10
6128.416936538038
 20
4957.32515399142
 30
0.0
 10
6130.064197546881
 20
4957.333342627036
 30
0.0
 10
6131.324373085478
 20
4957.33966938393
 30
0.0
 10
6132.478066311372
 20
4957.345471473714
 30
0.0
 10
6133.982056696103
 20
4957.353533384725
 30
0.0
 10
6136.690496608885
 20
4957.367882968952
 30
0.0
 10
6140.779563622844
 20
4957.389727050735
 30
0.0
 10
6145.365668976842
 20
4957.414207827827
 30
0.0
 10
6150.174968912074
 20
4957.439910905977
 30
0.0
 10
6154.933620037449
 20
4957.465349638432
 30
0.0
 10
6160.251368272243
 20
4957.493787226485
 30
0.0
 10
6166.128213629086
 20
4957.525221210371
 30
0.0
 10
6172.564156079861
 20
4957.559657027152
 30
0.0
 10
6178.922753085421
 20
4957.593668995987
 30
0.0
 10
6184.660855099708
 20
4957.624414252391
 30
0.0
 10
6192.567055747659
 20
4957.665901994291
 30
0.0
 10
6202.647622101868
 20
4957.71689143919
 30
0.0
 10
6213.101771578608
 20
4957.765956918089
 30
0.0
 10
6220.839004682573
 20
4957.799539922682
 30
0.0
 10
6226.18760040791
 20
4957.821343999093
 30
0.0
 10
6231.769255119023
 20
4957.842415982926
 30
0.0
 10
6237.73764981867
 20
4957.862558586468
 30
0.0
 10
6244.167589783414
 20
4957.881307569982
 30
0.0
 10
6250.554236666102
 20
4957.896801752118
 30
0.0
 10
6259.275816581146
 20
4957.913523313633
 30
0.0
 10
6270.146940807585
 20
4957.925263503326
 30
0.0
 10
6283.121213771206
 20
4957.922469317749
 30
0.0
 10
6296.116375467693
 20
4957.901903145933
 30
0.0
 10
6306.223945953671
 20
4957.875105755747
 30
0.0
 10
6313.559808608236
 20
4957.851323679251
 30
0.0
 10
6317.818587227203
 20
4957.836393393813
 30
0.0
 10
6322.163617133641
 20
4957.820061741027
 30
0.0
 10
6326.59489830749
 20
4957.802320884311
 30
0.0
 10
6330.567305118052
 20
4957.785507985021
 30
0.0
 10
6335.482728840646
 20
4957.763714231697
 30
0.0
 10
6341.741985547495
 20
4957.734145905157
 30
0.0
 10
6349.975152014302
 20
4957.69325307375
 30
0.0
 10
6359.106607052969
 20
4957.646258332695
 30
0.0
 10
6369.061797877915
 20
4957.59371475497
 30
0.0
 10
6379.742091061754
 20
4957.536078137025
 30
0.0
 10
6390.469865947996
 20
4957.477649212399
 30
0.0
 10
6400.868035107123
 20
4957.422193913445
 30
0.0
 10
6410.545775911222
 20
4957.371542104734
 30
0.0
 10
6417.472293947497
 20
4957.3362694109
 30
0.0
 10
6421.650728056223
 20
4957.315474476645
 30
0.0
 10
6423.437886221405
 20
4957.306658743046
 30
0.0
 10
6425.168236627547
 20
4957.298203759488
 30
0.0
 10
6426.841779274473
 20
4957.290109450239
 30
0.0
 10
6428.458514164955
 20
4957.282376446738
 30
0.0
 10
6430.018441288619
 20
4957.275002363496
 30
0.0
 10
6434.021574591638
 20
4957.256341832906
 30
0.0
 10
6440.40306668362
 20
4957.227733030076
 30
0.0
 10
6449.098073374243
 20
4957.191408503701
 30
0.0
 10
6457.541727539074
 20
4957.158925528625
 30
0.0
 10
6465.734024767907
 20
4957.130235239695
 30
0.0
 10
6473.674980578416
 20
4957.105469288646
 30
0.0
 10
6481.724235291967
 20
4957.083172201632
 30
0.0
 10
6489.899361663933
 20
4957.065703087433
 30
0.0
 10
6498.21685910905
 20
4957.046135710412
 30
0.0
 10
6504.737057720696
 20
4957.050909720328
 30
0.0
 10
6509.520158417463
 20
4957.024416853616
 30
0.0
 10
6512.652840962217
 20
4957.082904442827
 30
0.0
 10
6515.730482726917
 20
4956.470073634589
 30
0.0
 10
6518.57987097656
 20
4955.191144573817
 30
0.0
 10
6521.052720115308
 20
4953.296009676115
 30
0.0
 10
6522.996484393885
 20
4950.846612022202
 30
0.0
 10
6524.375550671655
 20
4947.84249947848
 30
0.0
 10
6524.863802115615
 20
4944.340673386318
 30
0.0
 10
6524.729823185391
 20
4940.699286583121
 30
0.0
 10
6524.767316174687
 20
4937.078310616441
 30
0.0
 10
6524.761306254284
 20
4933.515294950358
 30
0.0
 10
6524.767809907704
 20
4929.580427314227
 30
0.0
 10
6524.77174826786
 20
4925.210345749136
 30
0.0
 10
6524.77771074055
 20
4920.622580408331
 30
0.0
 10
6524.784472974603
 20
4915.595415822333
 30
0.0
 10
6524.792715371083
 20
4910.029812330237
 30
0.0
 10
6524.802933197508
 20
4903.582387148125
 30
0.0
 10
6524.814150142283
 20
4896.934238028384
 30
0.0
 10
6524.848531404217
 20
4877.299767489137
 30
0.0
 10
6524.885893978142
 20
4856.862128236162
 30
0.0
 10
6524.920772832327
 20
4835.510650448819
 30
0.0
 10
6524.931744945416
 20
4826.181929389199
 30
0.0
 10
6524.939446506557
 20
4816.84380852703
 30
0.0
 10
6524.943608984629
 20
4807.496287399358
 30
0.0
 10
6524.944297547455
 20
4798.487868652741
 30
0.0
 10
6524.942124780287
 20
4790.757192488459
 30
0.0
 10
6524.938099997501
 20
4784.204887402136
 30
0.0
 10
6524.933303581773
 20
4778.383078662651
 30
0.0
 10
6524.927060405597
 20
4772.253754788142
 30
0.0
 10
6524.919383448584
 20
4765.816915765028
 30
0.0
 10
6524.910257787606
 20
4759.072561610835
 30
0.0
 10
6524.899730077157
 20
4752.020692244626
 30
0.0
 10
6524.876449382211
 20
4737.877146069812
 30
0.0
 10
6524.853621688433
 20
4724.861156345349
 30
0.0
 10
6524.832620766126
 20
4713.075226617989
 30
0.0
 10
6524.82603538375
 20
4709.406022164892
 30
0.0
 10
6524.819411907258
 20
4705.736817779028
 30
0.0
 10
6524.812736805219
 20
4702.067613485252
 30
0.0
 10
6524.806054938085
 20
4698.398409200264
 30
0.0
 10
6524.798902207137
 20
4694.569586434833
 30
0.0
 10
6524.791719981172
 20
4690.438577322121
 30
0.0
 10
6524.784878442248
 20
4685.862814336945
 30
0.0
 10
6524.778212865871
 20
4680.859350138063
 30
0.0
 10
6524.771787600914
 20
4675.428184604848
 30
0.0
 10
6524.766295466326
 20
4670.248704773951
 30
0.0
 10
6524.761861142873
 20
4665.656880076162
 30
0.0
 10
6524.75941997703
 20
4662.770101438488
 30
0.0
 10
6524.758154643112
 20
4661.061295643559
 30
0.0
 10
6524.757657047008
 20
4660.346807181015
 30
0.0
 10
6524.757201389602
 20
4659.661558613916
 30
0.0
 10
6524.756826466664
 20
4659.005549954466
 30
0.0
 10
6524.75639692511
 20
4658.378781159764
 30
0.0
 10
6524.75638360155
 20
4657.781252379001
 30
0.0
 10
6524.754978995398
 20
4657.132061903828
 30
0.0
 10
6524.760436463932
 20
4656.42281570349
 30
0.0
 10
6524.734757209695
 20
4655.646279752075
 30
0.0
 10
6524.658649094011
 20
4654.875543698606
 30
0.0
 10
6524.418438800521
 20
4653.346898559375
 30
0.0
 10
6523.704682725401
 20
4651.119125582081
 30
0.0
 10
6522.091987534215
 20
4648.429191377794
 30
0.0
 10
6520.540075607641
 20
4647.061323598096
 30
0.0
 10
6519.7638750477
 20
4646.37717411877
 30
0.0
  0
SPLINE
  5
C0
330
1F
100
AcDbEntity
  8
0
  6
SLD-Plná
 62
     7
370
    25
100
AcDbSpline
210
0.0
220
0.0
230
1.0
 70
    11
 71
     3
 72
    85
 73
    81
 74
     0
 42
0.00000001
 43
0.00000001
 40
0.0
 40
0.0
 40
0.0
 40
0.0
 40
0.0014329007182386
 40
0.0028643852945603
 40
0.0043003362250216
 40
0.0050177382738381
 40
0.0058544727808366
 40
0.0137452046716666
 40
0.029526015082866
 40
0.0610851548297508
 40
0.1241954068901844
 40
0.1606456341888148
 40
0.1766851427304274
 40
0.1837428877996546
 40
0.1854820120444767
 40
0.1862465279147386
 40
0.1865479091350544
 40
0.1868401651139484
 40
0.1878423536096657
 40
0.1886242309578876
 40
0.1900649921741783
 40
0.1915026227599758
 40
0.1929339323422098
 40
0.1943809875100719
 40
0.1958412594049297
 40
0.1975762849572746
 40
0.1995443082437346
 40
0.2152879878119726
 40
0.2467732148292216
 40
0.2937845282866342
 40
0.3407804752449567
 40
0.3877717559477435
 40
0.4498241416190924
 40
0.4771317411593699
 40
0.4891477535017546
 40
0.4910360346065721
 40
0.4929243350603719
 40
0.4948126557047006
 40
0.4964497361697921
 40
0.497866787458174
 40
0.4993253236656099
 40
0.5007707879468309
 40
0.5022312281469382
 40
0.5036804742418284
 40
0.5051342569750736
 40
0.5070053968883351
 40
0.5089798114986955
 40
0.5109542113746558
 40
0.526748917469801
 40
0.558335839941243
 40
0.621501178372623
 40
0.6590884081036014
 40
0.6756282893169703
 40
0.6829061541707363
 40
0.6843357375855691
 40
0.6857654504587147
 40
0.6870920259260885
 40
0.6881504423571095
 40
0.6896056570465606
 40
0.6910637821536066
 40
0.692522527831875
 40
0.693977450827242
 40
0.6949630908833991
 40
0.6959516064405451
 40
0.6970932453368457
 40
0.7131227660577162
 40
0.7451795494250022
 40
0.7926703813825148
 40
0.8401456351232655
 40
0.8876159238035376
 40
0.9503011373482679
 40
0.9778872543904352
 40
0.9900258419001403
 40
0.9916154683255882
 40
0.9932051111261981
 40
0.9947947708995198
 40
0.9962136144489214
 40
0.9974123689527751
 40
0.9985621452201862
 40
0.9999999999999999
 40
0.9999999999999999
 40
0.9999999999999999
 40
0.9999999999999999
 10
6517.661047867214
 20
4649.124680060169
 30
0.0
 10
6518.26208914016
 20
4649.592550370605
 30
0.0
 10
6519.463577674389
 20
4650.527828593245
 30
0.0
 10
6520.660157266598
 20
4652.515925919919
 30
0.0
 10
6521.173557832669
 20
4654.365979846217
 30
0.0
 10
6521.230416799748
 20
4655.943655840773
 30
0.0
 10
6520.994535784384
 20
4660.926921853374
 30
0.0
 10
6521.33468943459
 20
4673.890683400116
 30
0.0
 10
6521.073680053823
 20
4703.069667900479
 30
0.0
 10
6521.293641299111
 20
4761.446928884691
 30
0.0
 10
6521.200149094197
 20
4830.737723844401
 30
0.0
 10
6521.189918854857
 20
4891.830479627646
 30
0.0
 10
6521.176668325444
 20
4923.300022324966
 30
0.0
 10
6521.176186230443
 20
4936.425573447006
 30
0.0
 10
6521.173308141674
 20
4941.478547153109
 30
0.0
 10
6521.174711900896
 20
4942.960964509245
 30
0.0
 10
6521.173166578457
 20
4943.678694561409
 30
0.0
 10
6521.1767906534
 20
4944.522182830751
 30
0.0
 10
6521.241215292952
 20
4945.616994569921
 30
0.0
 10
6520.91591448764
 20
4947.299730418438
 30
0.0
 10
6520.151913469685
 20
4949.105043208411
 30
0.0
 10
6518.661281139083
 20
4950.874268595682
 30
0.0
 10
6516.733039982891
 20
4952.133818798584
 30
0.0
 10
6514.525642159143
 20
4952.832535245446
 30
0.0
 10
6512.117823362496
 20
4952.874334108595
 30
0.0
 10
6509.396954890585
 20
4952.68207454501
 30
0.0
 10
6499.112925378727
 20
4952.855279906506
 30
0.0
 10
6473.122669058677
 20
4952.6472251014
 30
0.0
 10
6423.312381363083
 20
4952.889791599602
 30
0.0
 10
6356.996836909544
 20
4953.007024828838
 30
0.0
 10
6282.481730148233
 20
4953.248762558971
 30
0.0
 10
6200.017912365038
 20
4953.064985695568
 30
0.0
 10
6127.961706825873
 20
4952.841200452054
 30
0.0
 10
6074.385936260574
 20
4952.747527948804
 30
0.0
 10
6052.607371055869
 20
4952.743753277659
 30
0.0
 10
6044.260519784533
 20
4952.727233840383
 30
0.0
 10
6041.268040065685
 20
4952.74458922525
 30
0.0
 10
6038.402293615686
 20
4952.674807034422
 30
0.0
 10
6035.805034600247
 20
4952.887616681933
 30
0.0
 10
6033.462515642761
 20
4952.819420877646
 30
0.0
 10
6031.267053509185
 20
4952.118588102776
 30
0.0
 10
6029.321724446775
 20
4950.831279070265
 30
0.0
 10
6027.843287368699
 20
4949.027216354943
 30
0.0
 10
6026.923828179773
 20
4946.862339483747
 30
0.0
 10
6026.789731849273
 20
4944.326827914401
 30
0.0
 10
6026.886572685108
 20
4941.531329012434
 30
0.0
 10
6026.856845494933
 20
4938.454073110139
 30
0.0
 10
6026.876049791735
 20
4928.021137131905
 30
0.0
 10
6026.840260669094
 20
4901.935996052492
 30
0.0
 10
6026.83763895814
 20
4843.515452341827
 30
0.0
 10
6026.813830227843
 20
4773.576090042474
 30
0.0
 10
6026.854409470233
 20
4711.589453243147
 30
0.0
 10
6026.852653567807
 20
4679.138409005504
 30
0.0
 10
6026.869005621425
 20
4665.795457216157
 30
0.0
 10
6026.858832265109
 20
4660.438386473613
 30
0.0
 10
6026.879925881963
 20
4658.225841432204
 30
0.0
 10
6026.812348452982
 20
4656.211151361066
 30
0.0
 10
6026.866037476136
 20
4654.181160356073
 30
0.0
 10
6027.538490547585
 20
4652.150287217274
 30
0.0
 10
6028.874608871738
 20
4650.227918339629
 30
0.0
 10
6030.71982231638
 20
4648.782767270257
 30
0.0
 10
6032.6510770197
 20
4648.025784421851
 30
0.0
 10
6034.431157382682
 20
4647.74008245042
 30
0.0
 10
6036.035501436702
 20
4647.789030921744
 30
0.0
 10
6045.585238382719
 20
4648.3988444468
 30
0.0
 10
6071.675535507567
 20
4647.415303032387
 30
0.0
 10
6122.13215824998
 20
4648.033338059343
 30
0.0
 10
6189.28350143543
 20
4647.530728476489
 30
0.0
 10
6264.550340868108
 20
4647.397978249493
 30
0.0
 10
6347.857258965637
 20
4647.546902327685
 30
0.0
 10
6420.648149100389
 20
4647.786408140836
 30
0.0
 10
6474.769281666881
 20
4647.874467991594
 30
0.0
 10
6496.603228667656
 20
4647.882185800689
 30
0.0
 10
6504.69825287057
 20
4647.894425152788
 30
0.0
 10
6507.218746892639
 20
4647.884729458647
 30
0.0
 10
6509.647996166893
 20
4647.925940001427
 30
0.0
 10
6511.873921456849
 20
4647.79904797086
 30
0.0
 10
6513.809189114607
 20
4647.739189029687
 30
0.0
 10
6515.785480157203
 20
4648.113101978332
 30
0.0
 10
6516.991117798503
 20
4648.763356621802
 30
0.0
 10
6517.661047867214
 20
4649.124680060169
 30
0.0
  0
SPLINE
  5
C1
330
1F
100
AcDbEntity
  8
0
  6
SLD-Plná
 62
     7
370
    25
100
AcDbSpline
210
0.0
220
0.0
230
1.0
 70
     8
 71
     3
 72
    10
 73
     6
 74
     0
 42
0.00000001
 43
0.00000001
 40
0.0
 40
0.0
 40
0.0
 40
0.0
 40
0.4207047458837341
 40
0.9999874602768916
 40
1.0
 40
1.0
 40
1.0
 40
1.0
 10
6339.015451280514
 20
4751.238838689998
 30
0.0
 10
6339.687163921099
 20
4751.28157426007
 30
0.0
 10
6341.2837806079
 20
4751.383153894237
 30
0.0
 10
6342.80138571171
 20
4751.990133829125
 30
0.0
 10
6343.606169700871
 20
4752.443382473185
 30
0.0
 10
6343.606187121639
 20
4752.443392284439
 30
0.0
  0
SPLINE
  5
C2
330
1F
100
AcDbEntity
  8
0
  6
SLD-Plná
 62
     7
370
    25
100
AcDbSpline
210
0.0
220
0.0
230
1.0
 70
     8
 71
     3
 72
    12
 73
     8
 74
     0
 42
0.00000001
 43
0.00000001
 40
0.0
 40
0.0
 40
0.0
 40
0.0
 40
0.000006307844979
 40
0.0356772720099532
 40
0.3550617571622101
 40
0.6757865192930271
 40
1.0
 40
1.0
 40
1.0
 40
1.0
 10
6343.606187121639
 20
4752.443392284439
 30
0.0
 10
6343.606204929839
 20
4752.443401335468
 30
0.0
 10
6343.706928394881
 20
4752.494594095132
 30
0.0
 10
6344.691975459063
 20
4753.038414930368
 30
0.0
 10
6346.314217357994
 20
4754.505733991643
 30
0.0
 10
6347.873591503742
 20
4757.227232230109
 30
0.0
 10
6348.069972156523
 20
4759.281224866318
 30
0.0
 10
6348.168693632088
 20
4760.313776601815
 30
0.0
  0
SPLINE
  5
C3
330
1F
100
AcDbEntity
  8
0
  6
SLD-Plná
 62
     7
370
    25
100
AcDbSpline
210
0.0
220
0.0
230
1.0
 70
     8
 71
     3
 72
    13
 73
     9
 74
     0
 42
0.00000001
 43
0.00000001
 40
0.0
 40
0.0
 40
0.0
 40
0.0
 40
0.1232397674530785
 40
0.2109302055065543
 40
0.2986087081384868
 40
0.4739315511403634
 40
0.6492419928830739
 40
1.0
 40
1.0
 40
1.0
 40
1.0
 10
6348.168693632088
 20
4760.313776601815
 30
0.0
 10
6348.170664972512
 20
4763.599974962925
 30
0.0
 10
6348.174039007124
 20
4769.224445943108
 30
0.0
 10
6348.179963380265
 20
4777.186863187939
 30
0.0
 10
6348.186278469238
 20
4786.538078957534
 30
0.0
 10
6348.191982364156
 20
4798.225702637663
 30
0.0
 10
6348.186082977602
 20
4816.928373049129
 30
0.0
 10
6348.175649914185
 20
4830.956017933627
 30
0.0
 10
6348.168693632088
 20
4840.308999993083
 30
0.0
  0
SPLINE
  5
C4
330
1F
100
AcDbEntity
  8
0
  6
SLD-Plná
 62
     7
370
    25
100
AcDbSpline
210
0.0
220
0.0
230
1.0
 70
     8
 71
     3
 72
    12
 73
     8
 74
     0
 42
0.00000001
 43
0.00000001
 40
0.0
 40
0.0
 40
0.0
 40
0.0
 40
0.2204160711840149
 40
0.5440951920770307
 40
0.8665733448880935
 40
0.999993691932185
 40
1.0
 40
1.0
 40
1.0
 40
1.0
 10
6348.168693632088
 20
4840.308999993083
 30
0.0
 10
6348.12125622841
 20
4841.008854111314
 30
0.0
 10
6348.004157401961
 20
4842.736438034024
 30
0.0
 10
6346.891915683142
 20
4845.327103023548
 30
0.0
 10
6345.199423261884
 20
4847.191335450238
 30
0.0
 10
6343.983223600861
 20
4847.987755767914
 30
0.0
 10
6343.606204946108
 20
4848.179375251187
 30
0.0
 10
6343.606187121639
 20
4848.179384310461
 30
0.0
  0
SPLINE
  5
C5
330
1F
100
AcDbEntity
  8
0
  6
SLD-Plná
 62
     7
370
    25
100
AcDbSpline
210
0.0
220
0.0
230
1.0
 70
     8
 71
     3
 72
    10
 73
     6
 74
     0
 42
0.00000001
 43
0.00000001
 40
0.0
 40
0.0
 40
0.0
 40
0.0
 40
0.0000125336221942
 40
0.360968920082234
 40
1.0
 40
1.0
 40
1.0
 40
1.0
 10
6343.606187121639
 20
4848.179384310461
 30
0.0
 10
6343.606169716766
 20
4848.17939411276
 30
0.0
 10
6343.104908541125
 20
4848.461700814416
 30
0.0
 10
6341.641665503162
 20
4849.142568105295
 30
0.0
 10
6340.039376552493
 20
4849.289831096867
 30
0.0
 10
6339.015451280514
 20
4849.383937904901
 30
0.0
  0
SPLINE
  5
C6
330
1F
100
AcDbEntity
  8
0
  6
SLD-Plná
 62
     7
370
    25
100
AcDbSpline
210
0.0
220
0.0
230
1.0
 70
     8
 71
     3
 72
    11
 73
     7
 74
     0
 42
0.00000001
 43
0.00000001
 40
0.0
 40
0.0
 40
0.0
 40
0.0
 40
0.1324830695146798
 40
0.1987145499934354
 40
0.2649409714345198
 40
1.0
 40
1.0
 40
1.0
 40
1.0
 10
6339.015451280514
 20
4849.383937904901
 30
0.0
 10
6333.274814775313
 20
4849.390119670685
 30
0.0
 10
6324.664295680412
 20
4849.399391850218
 30
0.0
 10
6313.184127996479
 20
4849.412287275619
 30
0.0
 10
6275.593702182104
 20
4849.452594539882
 30
0.0
 10
6240.873045783107
 20
4849.416786449038
 30
0.0
 10
6209.022059391687
 20
4849.383937904901
 30
0.0
  0
SPLINE
  5
C7
330
1F
100
AcDbEntity
  8
0
  6
SLD-Plná
 62
     7
370
    25
100
AcDbSpline
210
0.0
220
0.0
230
1.0
 70
     8
 71
     3
 72
    10
 73
     6
 74
     0
 42
0.00000001
 43
0.00000001
 40
0.0
 40
0.0
 40
0.0
 40
0.0
 40
0.4207047458837349
 40
0.9999874602768807
 40
1.0
 40
1.0
 40
1.0
 40
1.0
 10
6209.022059391687
 20
4849.383937904901
 30
0.0
 10
6208.350346751144
 20
4849.341202334379
 30
0.0
 10
6206.753730064444
 20
4849.23962269914
 30
0.0
 10
6205.236124960016
 20
4848.632642770825
 30
0.0
 10
6204.43134097133
 20
4848.179394121714
 30
0.0
 10
6204.431323550562
 20
4848.179384310461
 30
0.0
  0
SPLINE
  5
C8
330
1F
100
AcDbEntity
  8
0
  6
SLD-Plná
 62
     7
370
    25
100
AcDbSpline
210
0.0
220
0.0
230
1.0
 70
     8
 71
     3
 72
    12
 73
     8
 74
     0
 42
0.00000001
 43
0.00000001
 40
0.0
 40
0.0
 40
0.0
 40
0.0
 40
0.0000063078449842
 40
0.0356772720099582
 40
0.3550617571622171
 40
0.6757865192930288
 40
1.0
 40
1.0
 40
1.0
 40
1.0
 10
6204.431323550562
 20
4848.179384310461
 30
0.0
 10
6204.431305742361
 20
4848.179375259432
 30
0.0
 10
6204.330582277291
 20
4848.128182499351
 30
0.0
 10
6203.345535213261
 20
4847.584361666371
 30
0.0
 10
6201.723293314153
 20
4846.117042602469
 30
0.0
 10
6200.163919168471
 20
4843.395544364991
 30
0.0
 10
6199.967538515682
 20
4841.341551728649
 30
0.0
 10
6199.868817040113
 20
4840.308999993083
 30
0.0
  0
SPLINE
  5
C9
330
1F
100
AcDbEntity
  8
0
  6
SLD-Plná
 62
     7
370
    25
100
AcDbSpline
210
0.0
220
0.0
230
1.0
 70
     8
 71
     3
 72
    13
 73
     9
 74
     0
 42
0.00000001
 43
0.00000001
 40
0.0
 40
0.0
 40
0.0
 40
0.0
 40
0.1232397674512896
 40
0.210930205504943
 40
0.2986087081370545
 40
0.4739315511392893
 40
0.6492419928823577
 40
1.0
 40
1.0
 40
1.0
 40
1.0
 10
6199.868817040113
 20
4840.308999993083
 30
0.0
 10
6199.866845699688
 20
4837.022801632022
 30
0.0
 10
6199.863471665077
 20
4831.398330651883
 30
0.0
 10
6199.857547291936
 20
4823.43591340709
 30
0.0
 10
6199.851232202962
 20
4814.084697637476
 30
0.0
 10
6199.845528308045
 20
4802.397073957322
 30
0.0
 10
6199.851427694598
 20
4783.694403545818
 30
0.0
 10
6199.861860758016
 20
4769.666758661292
 30
0.0
 10
6199.868817040113
 20
4760.313776601815
 30
0.0
  0
SPLINE
  5
CA
330
1F
100
AcDbEntity
  8
0
  6
SLD-Plná
 62
     7
370
    25
100
AcDbSpline
210
0.0
220
0.0
230
1.0
 70
     8
 71
     3
 72
    12
 73
     8
 74
     0
 42
0.00000001
 43
0.00000001
 40
0.0
 40
0.0
 40
0.0
 40
0.0
 40
0.2204160711840217
 40
0.5440951920770511
 40
0.8665733448881057
 40
0.999993691932193
 40
1.0
 40
1.0
 40
1.0
 40
1.0
 10
6199.868817040113
 20
4760.313776601815
 30
0.0
 10
6199.916254443791
 20
4759.613922483571
 30
0.0
 10
6200.03335327024
 20
4757.886338560821
 30
0.0
 10
6201.145594989053
 20
4755.295673571687
 30
0.0
 10
6202.838087410331
 20
4753.431441143733
 30
0.0
 10
6204.054287071327
 20
4752.635020827787
 30
0.0
 10
6204.431305726093
 20
4752.443401343713
 30
0.0
 10
6204.431323550561
 20
4752.443392284439
 30
0.0
  0
SPLINE
  5
CB
330
1F
100
AcDbEntity
  8
0
  6
SLD-Plná
 62
     7
370
    25
100
AcDbSpline
210
0.0
220
0.0
230
1.0
 70
     8
 71
     3
 72
    10
 73
     6
 74
     0
 42
0.00000001
 43
0.00000001
 40
0.0
 40
0.0
 40
0.0
 40
0.0
 40
0.000012533622191
 40
0.3609689200822571
 40
1.0
 40
1.0
 40
1.0
 40
1.0
 10
6204.431323550561
 20
4752.443392284439
 30
0.0
 10
6204.431340955434
 20
4752.443382482139
 30
0.0
 10
6204.932602131591
 20
4752.161075779642
 30
0.0
 10
6206.395845168628
 20
4751.480208490277
 30
0.0
 10
6207.998134119547
 20
4751.332945498295
 30
0.0
 10
6209.022059391687
 20
4751.238838689998
 30
0.0
  0
SPLINE
  5
CC
330
1F
100
AcDbEntity
  8
0
  6
SLD-Plná
 62
     7
370
    25
100
AcDbSpline
210
0.0
220
0.0
230
1.0
 70
     8
 71
     3
 72
    11
 73
     7
 74
     0
 42
0.00000001
 43
0.00000001
 40
0.0
 40
0.0
 40
0.0
 40
0.0
 40
0.1324830695160383
 40
0.1987145499954726
 40
0.2649409714372358
 40
1.0
 40
1.0
 40
1.0
 40
1.0
 10
6209.022059391687
 20
4751.238838689998
 30
0.0
 10
6214.762695896948
 20
4751.232656924215
 30
0.0
 10
6223.373214991935
 20
4751.223384744681
 30
0.0
 10
6234.853382675987
 20
4751.210489319281
 30
0.0
 10
6272.443808490303
 20
4751.170182055018
 30
0.0
 10
6307.164464889211
 20
4751.205990145862
 30
0.0
 10
6339.015451280514
 20
4751.238838689998
 30
0.0
  0
LWPOLYLINE
  5
CD
330
1F
100
AcDbEntity
  8
0
  6
SLD-Plná
 62
     7
370
    25
100
AcDbPolyline
 90
        9
 70
   128
 43
0.0
 10
6209.0187553361
 20
4846.6750233437
 10
6209.0192961405
 20
4846.8305445339
 10
6209.0198238526
 20
4847.0524533043
 10
6209.0203256968
 20
4847.3353774415
 10
6209.020789524
 20
4847.6724676042
 10
6209.0212041053
 20
4848.0555631401
 10
6209.0215594041
 20
4848.4753896479
 10
6209.0218468189
 20
4848.9217835019
 10
6209.0220593917
 20
4849.3839379049
  0
SPLINE
  5
CE
330
1F
100
AcDbEntity
  8
0
  6
SLD-Plná
 62
     7
370
    25
100
AcDbSpline
210
0.0
220
0.0
230
1.0
 70
     8
 71
     3
 72
    12
 73
     8
 74
     0
 42
0.00000001
 43
0.00000001
 40
0.0
 40
0.0
 40
0.0
 40
0.0
 40
0.2139638092626674
 40
0.4278286361960341
 40
0.643351620744701
 40
0.8606529782146684
 40
1.0
 40
1.0
 40
1.0
 40
1.0
 10
6202.679021366566
 20
4840.31138829745
 30
0.0
 10
6202.749842679807
 20
4841.022138238938
 30
0.0
 10
6202.891452543464
 20
4842.443309320118
 30
0.0
 10
6203.982694228073
 20
4844.342851582251
 30
0.0
 10
6205.593649822705
 20
4845.787295910533
 30
0.0
 10
6207.375418199394
 20
4846.56693522269
 30
0.0
 10
6208.557069329922
 20
4846.644656615033
 30
0.0
 10
6209.0187553361
 20
4846.675023343671
 30
0.0
  0
LWPOLYLINE
  5
CF
330
1F
100
AcDbEntity
  8
0
  6
SLD-Plná
 62
     7
370
    25
100
AcDbPolyline
 90
        9
 70
   128
 43
0.0
 10
6202.6790213666
 20
4840.3113882975
 10
6202.5183355843
 20
4840.3109911594
 10
6202.2877512115
 20
4840.3106041633
 10
6201.9931568059
 20
4840.3102371921
 10
6201.6420755841
 20
4840.3098996172
 10
6201.2434732972
 20
4840.3096000596
 10
6200.8075292672
 20
4840.3093461692
 10
6200.3453764326
 20
4840.3091444297
 10
6199.8688170401
 20
4840.3089999931
  0
SPLINE
  5
D0
330
1F
100
AcDbEntity
  8
0
  6
SLD-Plná
 62
     7
370
    25
100
AcDbSpline
210
0.0
220
0.0
230
1.0
 70
     8
 71
     3
 72
    12
 73
     8
 74
     0
 42
0.00000001
 43
0.00000001
 40
0.0
 40
0.0
 40
0.0
 40
0.0
 40
0.2139638092626707
 40
0.4278286361960368
 40
0.6433516207447024
 40
0.8606529782146696
 40
1.0
 40
1.0
 40
1.0
 40
1.0
 10
6345.358489305634
 20
4760.31138829745
 30
0.0
 10
6345.287667992394
 20
4759.600638355962
 30
0.0
 10
6345.146058128737
 20
4758.179467274782
 30
0.0
 10
6344.054816444127
 20
4756.279925012649
 30
0.0
 10
6342.443860849496
 20
4754.835480684366
 30
0.0
 10
6340.662092472807
 20
4754.05584137221
 30
0.0
 10
6339.480441342278
 20
4753.978119979866
 30
0.0
 10
6339.0187553361
 20
4753.947753251227
 30
0.0
  0
LWPOLYLINE
  5
D1
330
1F
100
AcDbEntity
  8
0
  6
SLD-Plná
 62
     7
370
    25
100
AcDbPolyline
 90
        9
 70
   128
 43
0.0
 10
6348.1686936321
 20
4760.3137766018
 10
6347.6921342396
 20
4760.3136321652
 10
6347.229981405
 20
4760.3134304257
 10
6346.794037375
 20
4760.3131765353
 10
6346.3954350881
 20
4760.3128769777
 10
6346.0443538663
 20
4760.3125394028
 10
6345.7497594607
 20
4760.3121724316
 10
6345.5191750879
 20
4760.3117854355
 10
6345.3584893056
 20
4760.3113882975
  0
LWPOLYLINE
  5
D2
330
1F
100
AcDbEntity
  8
0
  6
SLD-Plná
 62
     7
370
    25
100
AcDbPolyline
 90
        9
 70
   128
 43
0.0
 10
6339.0154512805
 20
4751.23883869
 10
6339.0156638533
 20
4751.700993093
 10
6339.0159512681
 20
4752.147386947
 10
6339.0163065669
 20
4752.5672134548
 10
6339.0167211482
 20
4752.9503089907
 10
6339.0171849754
 20
4753.2873991534
 10
6339.0176868196
 20
4753.5703232906
 10
6339.0182145317
 20
4753.792232061
 10
6339.0187553361
 20
4753.9477532512
  0
SPLINE
  5
D3
330
1F
100
AcDbEntity
  8
0
  6
SLD-Plná
 62
     7
370
    25
100
AcDbSpline
210
0.0
220
0.0
230
1.0
 70
     8
 71
     3
 72
    12
 73
     8
 74
     0
 42
0.00000001
 43
0.00000001
 40
0.0
 40
0.0
 40
0.0
 40
0.0
 40
0.2116202379746622
 40
0.4230550223316002
 40
0.6390555662295261
 40
0.8550661072668359
 40
1.0
 40
1.0
 40
1.0
 40
1.0
 10
6339.0187553361
 20
4846.675023343671
 30
0.0
 10
6339.722084250619
 20
4846.605414438067
 30
0.0
 10
6341.128125716625
 20
4846.466257628696
 30
0.0
 10
6343.009731887732
 20
4845.378627261702
 30
0.0
 10
6344.458051189772
 20
4843.784996040764
 30
0.0
 10
6345.243784680394
 20
4841.987117676534
 30
0.0
 10
6345.325626486692
 20
4840.791483943683
 30
0.0
 10
6345.358489305634
 20
4840.31138829745
 30
0.0
  0
LWPOLYLINE
  5
D4
330
1F
100
AcDbEntity
  8
0
  6
SLD-Plná
 62
     7
370
    25
100
AcDbPolyline
 90
        9
 70
   128
 43
0.0
 10
6339.0187553361
 20
4846.6750233437
 10
6339.0182145317
 20
4846.8305445339
 10
6339.0176868196
 20
4847.0524533043
 10
6339.0171849754
 20
4847.3353774415
 10
6339.0167211482
 20
4847.6724676042
 10
6339.0163065669
 20
4848.0555631401
 10
6339.0159512681
 20
4848.4753896479
 10
6339.0156638533
 20
4848.9217835019
 10
6339.0154512805
 20
4849.3839379049
  0
LWPOLYLINE
  5
D5
330
1F
100
AcDbEntity
  8
0
  6
SLD-Plná
 62
     7
370
    25
100
AcDbPolyline
 90
        9
 70
   128
 43
0.0
 10
6348.1686936321
 20
4840.3089999931
 10
6347.6921342396
 20
4840.3091444297
 10
6347.229981405
 20
4840.3093461692
 10
6346.794037375
 20
4840.3096000596
 10
6346.3954350881
 20
4840.3098996172
 10
6346.0443538663
 20
4840.3102371921
 10
6345.7497594607
 20
4840.3106041633
 10
6345.5191750879
 20
4840.3109911594
 10
6345.3584893056
 20
4840.3113882975
  0
SPLINE
  5
D6
330
1F
100
AcDbEntity
  8
0
  6
SLD-Plná
 62
     7
370
    25
100
AcDbSpline
210
0.0
220
0.0
230
1.0
 70
     8
 71
     3
 72
    12
 73
     8
 74
     0
 42
0.00000001
 43
0.00000001
 40
0.0
 40
0.0
 40
0.0
 40
0.0
 40
0.211620237974658
 40
0.4230550223315955
 40
0.63905556622952
 40
0.8550661072668364
 40
1.0
 40
1.0
 40
1.0
 40
1.0
 10
6209.0187553361
 20
4753.947753251227
 30
0.0
 10
6208.315426421582
 20
4754.017362156833
 30
0.0
 10
6206.909384955576
 20
4754.156518966203
 30
0.0
 10
6205.027778784468
 20
4755.244149333199
 30
0.0
 10
6203.579459482428
 20
4756.837780554136
 30
0.0
 10
6202.793725991806
 20
4758.635658918366
 30
0.0
 10
6202.711884185508
 20
4759.831292651217
 30
0.0
 10
6202.679021366566
 20
4760.31138829745
 30
0.0
  0
LWPOLYLINE
  5
D7
330
1F
100
AcDbEntity
  8
0
  6
SLD-Plná
 62
     7
370
    25
100
AcDbPolyline
 90
        9
 70
   128
 43
0.0
 10
6209.0220593917
 20
4751.23883869
 10
6209.0218468189
 20
4751.700993093
 10
6209.0215594041
 20
4752.147386947
 10
6209.0212041053
 20
4752.5672134548
 10
6209.020789524
 20
4752.9503089907
 10
6209.0203256968
 20
4753.2873991534
 10
6209.0198238526
 20
4753.5703232906
 10
6209.0192961405
 20
4753.792232061
 10
6209.0187553361
 20
4753.9477532512
  0
LWPOLYLINE
  5
D8
330
1F
100
AcDbEntity
  8
0
  6
SLD-Plná
 62
     7
370
    25
100
AcDbPolyline
 90
        9
 70
   128
 43
0.0
 10
6202.6790213666
 20
4760.3113882975
 10
6202.5183355843
 20
4760.3117854355
 10
6202.2877512115
 20
4760.3121724316
 10
6201.9931568059
 20
4760.3125394028
 10
6201.6420755841
 20
4760.3128769777
 10
6201.2434732972
 20
4760.3131765353
 10
6200.8075292672
 20
4760.3134304257
 10
6200.3453764326
 20
4760.3136321652
 10
6199.8688170401
 20
4760.3137766018
  0
SPLINE
  5
D9
330
1F
100
AcDbEntity
  8
0
  6
SLD-Plná
 62
     7
370
    25
100
AcDbSpline
210
0.0
220
0.0
230
1.0
 70
     8
 71
     3
 72
    11
 73
     7
 74
     0
 42
0.00000001
 43
0.00000001
 40
0.0
 40
0.0
 40
0.0
 40
0.0
 40
0.7350914674922244
 40
0.801318599689753
 40
0.86754573147679
 40
1.0
 40
1.0
 40
1.0
 40
1.0
 10
6209.0187553361
 20
4846.675023343671
 30
0.0
 10
6240.872761827564
 20
4846.658469760476
 30
0.0
 10
6275.596614579287
 20
4846.640424803224
 30
0.0
 10
6313.190203701814
 20
4846.662170149355
 30
0.0
 10
6324.669551190793
 20
4846.668963770343
 30
0.0
 10
6333.279073635084
 20
4846.672599514322
 30
0.0
 10
6339.0187553361
 20
4846.675023343671
 30
0.0
  0
SPLINE
  5
DA
330
1F
100
AcDbEntity
  8
0
  6
SLD-Plná
 62
     7
370
    25
100
AcDbSpline
210
0.0
220
0.0
230
1.0
 70
     8
 71
     3
 72
    11
 73
     7
 74
     0
 42
0.00000001
 43
0.00000001
 40
0.0
 40
0.0
 40
0.0
 40
0.0
 40
0.7350914674895086
 40
0.8013185996877162
 40
0.867545731475432
 40
1.0
 40
1.0
 40
1.0
 40
1.0
 10
6339.0187553361
 20
4753.947753251227
 30
0.0
 10
6307.164748844753
 20
4753.964306834424
 30
0.0
 10
6272.440896093119
 20
4753.982351791675
 30
0.0
 10
6234.847306970652
 20
4753.960606445545
 30
0.0
 10
6223.367959481554
 20
4753.953812824557
 30
0.0
 10
6214.758437037174
 20
4753.950177080577
 30
0.0
 10
6209.0187553361
 20
4753.947753251227
 30
0.0
  0
SPLINE
  5
DB
330
1F
100
AcDbEntity
  8
0
  6
SLD-Plná
 62
     7
370
    25
100
AcDbSpline
210
0.0
220
0.0
230
1.0
 70
     8
 71
     3
 72
    13
 73
     9
 74
     0
 42
0.00000001
 43
0.00000001
 40
0.0
 40
0.0
 40
0.0
 40
0.0
 40
0.3507184713989752
 40
0.5260777107242782
 40
0.7014369531009395
 40
0.7891165499280896
 40
0.8767961462746763
 40
1.0
 40
1.0
 40
1.0
 40
1.0
 10
6202.679021366566
 20
4760.31138829745
 30
0.0
 10
6202.683174888244
 20
4769.663875057479
 30
0.0
 10
6202.689405170804
 20
4783.692605294212
 30
0.0
 10
6202.693729932731
 20
4802.39760860708
 30
0.0
 10
6202.689694808915
 20
4814.088230655084
 30
0.0
 10
6202.685464676909
 20
4823.440715668374
 30
0.0
 10
6202.681670753112
 20
4831.402391050215
 30
0.0
 10
6202.6799984005
 20
4837.025951283795
 30
0.0
 10
6202.679021366566
 20
4840.31138829745
 30
0.0
  0
SPLINE
  5
DC
330
1F
100
AcDbEntity
  8
0
  6
SLD-Plná
 62
     7
370
    25
100
AcDbSpline
210
0.0
220
0.0
230
1.0
 70
     8
 71
     3
 72
    13
 73
     9
 74
     0
 42
0.00000001
 43
0.00000001
 40
0.0
 40
0.0
 40
0.0
 40
0.0
 40
0.3507184713982593
 40
0.5260777107232044
 40
0.7014369530995077
 40
0.7891165499264803
 40
0.876796146272888
 40
1.0
 40
1.0
 40
1.0
 40
1.0
 10
6345.358489305634
 20
4840.31138829745
 30
0.0
 10
6345.354335783956
 20
4830.958901537439
 30
0.0
 10
6345.348105501396
 20
4816.930171300735
 30
0.0
 10
6345.343780739469
 20
4798.225167987905
 30
0.0
 10
6345.347815863286
 20
4786.534545939925
 30
0.0
 10
6345.352045995291
 20
4777.182060926654
 30
0.0
 10
6345.355839919088
 20
4769.220385544775
 30
0.0
 10
6345.3575122717
 20
4763.596825311152
 30
0.0
 10
6345.358489305634
 20
4760.31138829745
 30
0.0
  0
LINE
  5
DD
330
1F
100
AcDbEntity
  8
0
  6
SLD-Plná
 62
     7
370
    25
100
AcDbLine
 10
6209.0187553361
 20
4846.6750233437
 30
0.0
 11
6209.0187553361
 21
4845.6727820885
 31
0.0
  0
SPLINE
  5
DE
330
1F
100
AcDbEntity
  8
0
  6
SLD-Plná
 62
     7
370
    25
100
AcDbSpline
210
0.0
220
0.0
230
1.0
 70
     8
 71
     3
 72
    12
 73
     8
 74
     0
 42
0.00000001
 43
0.00000001
 40
0.0
 40
0.0
 40
0.0
 40
0.0
 40
0.2137322476896684
 40
0.4269551562809379
 40
0.63948078529273
 40
0.8511262852375192
 40
1.0
 40
1.0
 40
1.0
 40
1.0
 10
6209.0187553361
 20
4845.672782088489
 30
0.0
 10
6208.414086833512
 20
4845.619787010481
 30
0.0
 10
6207.206190796242
 20
4845.513923145493
 30
0.0
 10
6205.590544279738
 20
4844.606676345422
 30
0.0
 10
6204.367548117473
 20
4843.264423507946
 30
0.0
 10
6203.697532530864
 20
4841.748137391602
 30
0.0
 10
6203.626690544012
 20
4840.731288461849
 30
0.0
 10
6203.597436875099
 20
4840.31138829745
 30
0.0
  0
LINE
  5
DF
330
1F
100
AcDbEntity
  8
0
  6
SLD-Plná
 62
     7
370
    25
100
AcDbLine
 10
6202.6790213666
 20
4840.3113882975
 30
0.0
 11
6203.5974368751
 21
4840.3113882975
 31
0.0
  0
LINE
  5
E0
330
1F
100
AcDbEntity
  8
0
  6
SLD-Plná
 62
     7
370
    25
100
AcDbLine
 10
6339.0187553361
 20
4753.9477532512
 30
0.0
 11
6339.0187553361
 21
4754.9499945064
 31
0.0
  0
SPLINE
  5
E1
330
1F
100
AcDbEntity
  8
0
  6
SLD-Plná
 62
     7
370
    25
100
AcDbSpline
210
0.0
220
0.0
230
1.0
 70
     8
 71
     3
 72
    12
 73
     8
 74
     0
 42
0.00000001
 43
0.00000001
 40
0.0
 40
0.0
 40
0.0
 40
0.0
 40
0.2137322476896747
 40
0.4269551562809422
 40
0.6394807852927398
 40
0.8511262852375135
 40
1.0
 40
1.0
 40
1.0
 40
1.0
 10
6339.0187553361
 20
4754.949994506412
 30
0.0
 10
6339.623423838689
 20
4755.002989584419
 30
0.0
 10
6340.831319875958
 20
4755.108853449407
 30
0.0
 10
6342.446966392463
 20
4756.016100249477
 30
0.0
 10
6343.669962554727
 20
4757.358353086955
 30
0.0
 10
6344.339978141336
 20
4758.874639203298
 30
0.0
 10
6344.410820128189
 20
4759.891488133051
 30
0.0
 10
6344.440073797103
 20
4760.31138829745
 30
0.0
  0
LINE
  5
E2
330
1F
100
AcDbEntity
  8
0
  6
SLD-Plná
 62
     7
370
    25
100
AcDbLine
 10
6345.3584893056
 20
4760.3113882975
 30
0.0
 11
6344.4400737971
 21
4760.3113882975
 31
0.0
  0
LINE
  5
E3
330
1F
100
AcDbEntity
  8
0
  6
SLD-Plná
 62
     7
370
    25
100
AcDbLine
 10
6345.3584893056
 20
4840.3113882975
 30
0.0
 11
6344.4400737971
 21
4840.3113882975
 31
0.0
  0
SPLINE
  5
E4
330
1F
100
AcDbEntity
  8
0
  6
SLD-Plná
 62
     7
370
    25
100
AcDbSpline
210
0.0
220
0.0
230
1.0
 70
     8
 71
     3
 72
    12
 73
     8
 74
     0
 42
0.00000001
 43
0.00000001
 40
0.0
 40
0.0
 40
0.0
 40
0.0
 40
0.2106360138086493
 40
0.42137220069879
 40
0.6327641471624678
 40
0.845262349377252
 40
1.0
 40
1.0
 40
1.0
 40
1.0
 10
6344.440073797103
 20
4840.31138829745
 30
0.0
 10
6344.382154547186
 20
4840.907143385225
 30
0.0
 10
6344.266288502444
 20
4842.098936886605
 30
0.0
 10
6343.361258003902
 20
4843.693351909554
 30
0.0
 10
6342.022653799518
 20
4844.907923253692
 30
0.0
 10
6340.491179187384
 20
4845.582389903743
 30
0.0
 10
6339.45525145316
 20
4845.645985566808
 30
0.0
 10
6339.0187553361
 20
4845.672782088489
 30
0.0
  0
LINE
  5
E5
330
1F
100
AcDbEntity
  8
0
  6
SLD-Plná
 62
     7
370
    25
100
AcDbLine
 10
6339.0187553361
 20
4846.6750233437
 30
0.0
 11
6339.0187553361
 21
4845.6727820885
 31
0.0
  0
LINE
  5
E6
330
1F
100
AcDbEntity
  8
0
  6
SLD-Plná
 62
     7
370
    25
100
AcDbLine
 10
6202.6790213666
 20
4760.3113882975
 30
0.0
 11
6203.5974368751
 21
4760.3113882975
 31
0.0
  0
SPLINE
  5
E7
330
1F
100
AcDbEntity
  8
0
  6
SLD-Plná
 62
     7
370
    25
100
AcDbSpline
210
0.0
220
0.0
230
1.0
 70
     8
 71
     3
 72
    12
 73
     8
 74
     0
 42
0.00000001
 43
0.00000001
 40
0.0
 40
0.0
 40
0.0
 40
0.0
 40
0.2106360138086482
 40
0.4213722006987916
 40
0.6327641471624758
 40
0.8452623493772565
 40
1.0
 40
1.0
 40
1.0
 40
1.0
 10
6203.597436875099
 20
4760.31138829745
 30
0.0
 10
6203.655356125015
 20
4759.715633209674
 30
0.0
 10
6203.771222169757
 20
4758.523839708295
 30
0.0
 10
6204.676252668299
 20
4756.929424685345
 30
0.0
 10
6206.014856872683
 20
4755.714853341207
 30
0.0
 10
6207.546331484817
 20
4755.040386691157
 30
0.0
 10
6208.582259219041
 20
4754.976791028091
 30
0.0
 10
6209.0187553361
 20
4754.949994506412
 30
0.0
  0
LINE
  5
E8
330
1F
100
AcDbEntity
  8
0
  6
SLD-Plná
 62
     7
370
    25
100
AcDbLine
 10
6209.0187553361
 20
4753.9477532512
 30
0.0
 11
6209.0187553361
 21
4754.9499945064
 31
0.0
  0
ELLIPSE
  5
E9
330
1F
100
AcDbEntity
  8
0
  6
SLD-Plná
 62
     7
370
    25
100
AcDbEllipse
 10
6274.0187553361
 20
5085.2570094197
 30
0.0
 11
896.5
 21
0.0
 31
0.0
210
0.0
220
0.0
230
1.0
 40
0.2679491924
 41
4.639821122692938
 42
4.784956838076449
  0
ELLIPSE
  5
EA
330
1F
100
AcDbEntity
  8
0
  6
SLD-Plná
 62
     7
370
    25
100
AcDbEllipse
 10
6274.0187553361
 20
4515.3657671752
 30
0.0
 11
896.5
 21
0.0
 31
0.0
210
0.0
220
0.0
230
1.0
 40
0.2679491924
 41
1.498228469103141
 42
1.643364184486652
  0
LINE
  5
EB
330
1F
100
AcDbEntity
  8
0
  6
SLD-Plná
 62
     7
370
    25
100
AcDbLine
 10
6203.5974368751
 20
4840.3113882975
 30
0.0
 11
6203.5974368751
 21
4760.3113882975
 31
0.0
  0
LINE
  5
EC
330
1F
100
AcDbEntity
  8
0
  6
SLD-Plná
 62
     7
370
    25
100
AcDbLine
 10
6344.4400737971
 20
4760.3113882975
 30
0.0
 11
6344.4400737971
 21
4840.3113882975
 31
0.0
  0
ARC
  5
ED
330
1F
100
AcDbEntity
  8
0
  6
SLD-Plná
 62
     7
370
    25
100
AcDbCircle
 10
6223.2531625705
 20
4843.3901109412
 30
0.0
 40
14.41627333541929
100
AcDbArc
 50
170.8894493251
 51
180.525195799
  0
SPLINE
  5
EE
330
1F
100
AcDbEntity
  8
0
  6
SLD-Plná
 62
     7
370
    25
100
AcDbSpline
210
0.0
220
0.0
230
1.0
 70
     8
 71
     3
 72
    12
 73
     8
 74
     0
 42
0.00000001
 43
0.00000001
 40
0.0
 40
0.0
 40
0.0
 40
0.0
 40
0.1489980709047229
 40
0.3608174413553651
 40
0.5734908005545628
 40
0.7866916839796044
 40
1.0
 40
1.0
 40
1.0
 40
1.0
 10
6205.822606979316
 20
4840.31138829745
 30
0.0
 10
6205.839026823136
 20
4840.544253132481
 30
0.0
 10
6205.878789526092
 20
4841.108164419703
 30
0.0
 10
6206.254536763319
 20
4841.947382218227
 30
0.0
 10
6206.937702837636
 20
4842.685692765116
 30
0.0
 10
6207.835733680148
 20
4843.179176810146
 30
0.0
 10
6208.503518410215
 20
4843.231699541942
 30
0.0
 10
6208.837494878765
 20
4843.257967522766
 30
0.0
  0
LINE
  5
EF
330
1F
100
AcDbEntity
  8
0
  6
SLD-Plná
 62
     7
370
    25
100
AcDbLine
 10
6203.5974368751
 20
4840.3113882975
 30
0.0
 11
6205.8226069793
 21
4840.3113882975
 31
0.0
  0
ARC
  5
F0
330
1F
100
AcDbEntity
  8
0
  6
SLD-Plná
 62
     7
370
    25
100
AcDbCircle
 10
6324.7843481018
 20
4757.2326656537
 30
0.0
 40
14.41627333530025
100
AcDbArc
 50
350.8894493251
 51
0.525195799
  0
SPLINE
  5
F1
330
1F
100
AcDbEntity
  8
0
  6
SLD-Plná
 62
     7
370
    25
100
AcDbSpline
210
0.0
220
0.0
230
1.0
 70
     8
 71
     3
 72
    12
 73
     8
 74
     0
 42
0.00000001
 43
0.00000001
 40
0.0
 40
0.0
 40
0.0
 40
0.0
 40
0.1489980709046659
 40
0.3608174413552884
 40
0.5734908005545054
 40
0.7866916839795324
 40
1.0
 40
1.0
 40
1.0
 40
1.0
 10
6342.214903692882
 20
4760.31138829745
 30
0.0
 10
6342.198483849063
 20
4760.078523462419
 30
0.0
 10
6342.158721146108
 20
4759.514612175197
 30
0.0
 10
6341.782973908881
 20
4758.675394376672
 30
0.0
 10
6341.099807834565
 20
4757.937083829784
 30
0.0
 10
6340.201776992052
 20
4757.443599784754
 30
0.0
 10
6339.533992261984
 20
4757.391077052958
 30
0.0
 10
6339.200015793434
 20
4757.364809072134
 30
0.0
  0
LINE
  5
F2
330
1F
100
AcDbEntity
  8
0
  6
SLD-Plná
 62
     7
370
    25
100
AcDbLine
 10
6342.2149036929
 20
4760.3113882975
 30
0.0
 11
6344.4400737971
 21
4760.3113882975
 31
0.0
  0
LINE
  5
F3
330
1F
100
AcDbEntity
  8
0
  6
SLD-Plná
 62
     7
370
    25
100
AcDbLine
 10
6342.2149036929
 20
4840.3113882975
 30
0.0
 11
6344.4400737971
 21
4840.3113882975
 31
0.0
  0
SPLINE
  5
F4
330
1F
100
AcDbEntity
  8
0
  6
SLD-Plná
 62
     7
370
    25
100
AcDbSpline
210
0.0
220
0.0
230
1.0
 70
     8
 71
     3
 72
    12
 73
     8
 74
     0
 42
0.00000001
 43
0.00000001
 40
0.0
 40
0.0
 40
0.0
 40
0.0
 40
0.1543785711518455
 40
0.366771272558251
 40
0.5782842156730851
 40
0.7891969333594332
 40
1.0
 40
1.0
 40
1.0
 40
1.0
 10
6339.200015793434
 20
4843.257967522766
 30
0.0
 10
6339.440969765163
 20
4843.245322298729
 30
0.0
 10
6340.013426124745
 20
4843.215279884956
 30
0.0
 10
6340.86349851147
 20
4842.850307472571
 30
0.0
 10
6341.610213163151
 20
4842.183942028332
 30
0.0
 10
6342.117313510448
 20
4841.302731822241
 30
0.0
 10
6342.182379271359
 20
4840.641778853875
 30
0.0
 10
6342.214903692882
 20
4840.31138829745
 30
0.0
  0
ARC
  5
F5
330
1F
100
AcDbEntity
  8
0
  6
SLD-Plná
 62
     7
370
    25
100
AcDbCircle
 10
6324.7843481018
 20
4843.3901109412
 30
0.0
 40
14.41627333535843
100
AcDbArc
 50
359.474804201
 51
9.1105506749
  0
SPLINE
  5
F6
330
1F
100
AcDbEntity
  8
0
  6
SLD-Plná
 62
     7
370
    25
100
AcDbSpline
210
0.0
220
0.0
230
1.0
 70
     8
 71
     3
 72
    12
 73
     8
 74
     0
 42
0.00000001
 43
0.00000001
 40
0.0
 40
0.0
 40
0.0
 40
0.0
 40
0.1543785711517736
 40
0.3667712725581807
 40
0.5782842156730165
 40
0.7891969333593863
 40
1.0
 40
1.0
 40
1.0
 40
1.0
 10
6208.837494878765
 20
4757.364809072134
 30
0.0
 10
6208.596540907037
 20
4757.377454296171
 30
0.0
 10
6208.024084547455
 20
4757.407496709944
 30
0.0
 10
6207.17401216073
 20
4757.772469122327
 30
0.0
 10
6206.427297509049
 20
4758.438834566567
 30
0.0
 10
6205.920197161752
 20
4759.320044772659
 30
0.0
 10
6205.855131400842
 20
4759.980997741025
 30
0.0
 10
6205.822606979316
 20
4760.31138829745
 30
0.0
  0
ARC
  5
F7
330
1F
100
AcDbEntity
  8
0
  6
SLD-Plná
 62
     7
370
    25
100
AcDbCircle
 10
6223.2531625705
 20
4757.2326656537
 30
0.0
 40
14.4162733354547
100
AcDbArc
 50
179.4748042011
 51
189.1105506749
  0
LINE
  5
F8
330
1F
100
AcDbEntity
  8
0
  6
SLD-Plná
 62
     7
370
    25
100
AcDbLine
 10
6203.5974368751
 20
4760.3113882975
 30
0.0
 11
6205.8226069793
 21
4760.3113882975
 31
0.0
  0
LINE
  5
F9
330
1F
100
AcDbEntity
  8
0
  6
SLD-Plná
 62
     7
370
    25
100
AcDbLine
 10
6342.2149036929
 20
4840.3113882975
 30
0.0
 11
6342.2149036929
 21
4760.3113882975
 31
0.0
  0
LINE
  5
FA
330
1F
100
AcDbEntity
  8
0
  6
SLD-Plná
 62
     7
370
    25
100
AcDbLine
 10
6205.8226069793
 20
4760.3113882975
 30
0.0
 11
6205.8226069793
 21
4840.3113882975
 31
0.0
  0
ELLIPSE
  5
FB
330
1F
100
AcDbEntity
  8
0
  6
SLD-Plná
 62
     7
370
    25
100
AcDbEllipse
 10
6274.0187553361
 20
5082.842194854
 30
0.0
 11
899.0
 21
0.0
 31
0.0
210
0.0
220
0.0
230
1.0
 40
0.2672040612
 41
4.639821122692936
 42
4.78495683807645
  0
ELLIPSE
  5
FC
330
1F
100
AcDbEntity
  8
0
  6
SLD-Plná
 62
     7
370
    25
100
AcDbEllipse
 10
6274.0187553361
 20
4517.7805817409
 30
0.0
 11
899.0
 21
0.0
 31
0.0
210
0.0
220
0.0
230
1.0
 40
0.2672040612
 41
1.498228469103141
 42
1.643364184486654
  0
LINE
  5
FD
330
1F
100
AcDbEntity
  8
0
  6
SLD-Plná
 62
     7
370
    25
100
AcDbLine
 10
6340.0187553361
 20
4767.3113882974
 30
0.0
 11
6340.0187553361
 21
4833.3113882974
 31
0.0
  0
ARC
  5
FE
330
1F
100
AcDbEntity
  8
0
  6
SLD-Plná
 62
     7
370
    25
100
AcDbCircle
 10
6333.0187553361
 20
4767.3113882974
 30
0.0
 40
7.0
100
AcDbArc
 50
270.0
 51
0.0
  0
LINE
  5
FF
330
1F
100
AcDbEntity
  8
0
  6
SLD-Plná
 62
     7
370
    25
100
AcDbLine
 10
6215.0187553361
 20
4760.3113882975
 30
0.0
 11
6333.0187553361
 21
4760.3113882975
 31
0.0
  0
ARC
  5
100
330
1F
100
AcDbEntity
  8
0
  6
SLD-Plná
 62
     7
370
    25
100
AcDbCircle
 10
6215.0187553361
 20
4767.3113882974
 30
0.0
 40
7.0
100
AcDbArc
 50
180.0
 51
270.0
  0
LINE
  5
101
330
1F
100
AcDbEntity
  8
0
  6
SLD-Plná
 62
     7
370
    25
100
AcDbLine
 10
6208.0187553361
 20
4833.3113882974
 30
0.0
 11
6208.0187553361
 21
4767.3113882974
 31
0.0
  0
ARC
  5
102
330
1F
100
AcDbEntity
  8
0
  6
SLD-Plná
 62
     7
370
    25
100
AcDbCircle
 10
6333.0187553361
 20
4833.3113882974
 30
0.0
 40
7.000000000000909
100
AcDbArc
 50
0.0
 51
90.0
  0
ARC
  5
103
330
1F
100
AcDbEntity
  8
0
  6
SLD-Plná
 62
     7
370
    25
100
AcDbCircle
 10
6215.0187553361
 20
4833.3113882974
 30
0.0
 40
7.000000000000909
100
AcDbArc
 50
90.0
 51
180.0
  0
LINE
  5
104
330
1F
100
AcDbEntity
  8
0
  6
SLD-Plná
 62
     7
370
    25
100
AcDbLine
 10
6333.0187553361
 20
4840.3113882975
 30
0.0
 11
6215.0187553361
 21
4840.3113882975
 31
0.0
  0
SPLINE
  5
105
330
1F
100
AcDbEntity
  8
0
  6
SLD-Plná
 62
     7
370
    25
100
AcDbSpline
210
0.0
220
0.0
230
1.0
 70
     8
 71
     3
 72
    28
 73
    24
 74
     0
 42
0.00000001
 43
0.00000001
 40
0.0
 40
0.0
 40
0.0
 40
0.0
 40
0.0630879799719077
 40
0.1270887648611527
 40
0.1855433118813383
 40
0.238672528279138
 40
0.2866317155258606
 40
0.3295288489787598
 40
0.367437898571443
 40
0.4004084751289649
 40
0.428472840451956
 40
0.4558528361724616
 40
0.4882768102171536
 40
0.525782458594309
 40
0.5683855473321348
 40
0.6161178391192252
 40
0.6690336523298822
 40
0.7171537132394014
 40
0.769005859564274
 40
0.8246915677888444
 40
0.8843506976766845
 40
0.9481743757602873
 40
1.0
 40
1.0
 40
1.0
 40
1.0
 10
6739.314466067863
 20
5263.564185666509
 30
0.0
 10
6740.241492902082
 20
5260.727362526341
 30
0.0
 10
6742.108959500416
 20
5255.012670929398
 30
0.0
 10
6745.706738297976
 20
5246.995699947156
 30
0.0
 10
6749.618624582402
 20
5239.668268578213
 30
0.0
 10
6753.63783857758
 20
5233.278053417568
 30
0.0
 10
6757.615458877633
 20
5227.748982532378
 30
0.0
 10
6761.445162220484
 20
5223.012930381501
 30
0.0
 10
6765.033251696142
 20
5219.002671925243
 30
0.0
 10
6768.302879454233
 20
5215.655347421864
 30
0.0
 10
6771.334849438475
 20
5212.77650493695
 30
0.0
 10
6774.443992250648
 20
5210.020131867507
 30
0.0
 10
6777.997443230556
 20
5207.096334438495
 30
0.0
 10
6782.248830901644
 20
5203.894957634941
 30
0.0
 10
6787.252467486871
 20
5200.500365389485
 30
0.0
 10
6793.062742100964
 20
5197.013966210319
 30
0.0
 10
6799.310782643585
 20
5193.774153301925
 30
0.0
 10
6805.925923016064
 20
5190.851727601859
 30
0.0
 10
6812.832855813071
 20
5188.299261930272
 30
0.0
 10
6820.41857749359
 20
5186.052189845299
 30
0.0
 10
6828.700511430973
 20
5184.253134423777
 30
0.0
 10
6836.913795805997
 20
5183.035297587362
 30
0.0
 10
6842.37926725027
 20
5182.805306332596
 30
0.0
 10
6844.828494903816
 20
5182.702240943455
 30
0.0
  0
SPLINE
  5
106
330
1F
100
AcDbEntity
  8
0
  6
SLD-Plná
 62
     7
370
    25
100
AcDbSpline
210
0.0
220
0.0
230
1.0
 70
     8
 71
     3
 72
    28
 73
    24
 74
     0
 42
0.00000001
 43
0.00000001
 40
0.0
 40
0.0
 40
0.0
 40
0.0
 40
0.0540510100491637
 40
0.1185393852008606
 40
0.1773542271789937
 40
0.2307140347206752
 40
0.2787710117621603
 40
0.3216298698591477
 40
0.3593614185778261
 40
0.3920123465531732
 40
0.4196159089514653
 40
0.4474435479046202
 40
0.4802281631199432
 40
0.5179771207701048
 40
0.5607092425962837
 40
0.6084597045901893
 40
0.6612865861955928
 40
0.7092536625299012
 40
0.7608838679043755
 40
0.8162813841572565
 40
0.8755887747669984
 40
0.9389995936438383
 40
1.0
 40
1.0
 40
1.0
 40
1.0
 10
6943.122885188475
 20
5182.70543364237
 30
0.0
 10
6945.677326375726
 20
5182.814754236439
 30
0.0
 10
6951.279476781298
 20
5183.054505464008
 30
0.0
 10
6959.585094391978
 20
5184.313616526286
 30
0.0
 10
6967.745591295524
 20
5186.112555619964
 30
0.0
 10
6975.012581780095
 20
5188.273818514715
 30
0.0
 10
6981.420256669294
 20
5190.622179196137
 30
0.0
 10
6987.006255759442
 20
5193.034787457741
 30
0.0
 10
6991.810991267296
 20
5195.400085591798
 30
0.0
 10
6995.875287664328
 20
5197.625168764149
 30
0.0
 10
6999.451661986893
 20
5199.759469156908
 30
0.0
 10
7002.958432307617
 20
5202.018104902138
 30
0.0
 10
7006.772145762517
 20
5204.680929690282
 30
0.0
 10
7011.026866012738
 20
5207.935348191185
 30
0.0
 10
7015.655815544518
 20
5211.854339037115
 30
0.0
 10
7020.577525315049
 20
5216.51614246749
 30
0.0
 10
7025.370309539507
 20
5221.656155398586
 30
0.0
 10
7029.949960610195
 20
5227.225319630274
 30
0.0
 10
7034.248840806849
 20
5233.165499146913
 30
0.0
 10
7038.433691369739
 20
5239.831650393648
 30
0.0
 10
7042.381335444084
 20
5247.275900869993
 30
0.0
 10
7045.919434543308
 20
5255.224403553638
 30
0.0
 10
7047.743656875835
 20
5260.819738548284
 30
0.0
 10
7048.638096291247
 20
5263.563202473933
 30
0.0
  0
LINE
  5
107
330
1F
100
AcDbEntity
  8
0
  6
SLD-Plná
 62
     7
370
    25
100
AcDbLine
 10
6915.975798601
 20
5172.5534273078
 30
0.0
 11
6936.290154143
 21
5172.5534273078
 31
0.0
  0
LINE
  5
108
330
1F
100
AcDbEntity
  8
0
  6
SLD-Plná
 62
     7
370
    25
100
AcDbLine
 10
6897.475798601
 20
5172.5534273078
 30
0.0
 11
6899.9925592907
 21
5172.5534273078
 31
0.0
  0
LINE
  5
109
330
1F
100
AcDbEntity
  8
0
  6
SLD-Plná
 62
     7
370
    25
100
AcDbLine
 10
6887.9590379112
 20
5172.5534273078
 30
0.0
 11
6890.475798601
 21
5172.5534273078
 31
0.0
  0
LINE
  5
10A
330
1F
100
AcDbEntity
  8
0
  6
SLD-Plná
 62
     7
370
    25
100
AcDbLine
 10
6851.6614430589
 20
5172.5534273078
 30
0.0
 11
6872.0124238215
 21
5172.5534273078
 31
0.0
  0
ARC
  5
10B
330
1F
100
AcDbEntity
  8
0
  6
SLD-Plná
 62
     7
370
    25
100
AcDbCircle
 10
6851.6614430589
 20
5176.0534273078
 30
0.0
 40
3.500000000000004
100
AcDbArc
 50
195.0
 51
269.6933953197
  0
ARC
  5
10C
330
1F
100
AcDbEntity
  8
0
  6
SLD-Plná
 62
     7
370
    25
100
AcDbCircle
 10
6936.290154143
 20
5176.0534273078
 30
0.0
 40
3.500000000000882
100
AcDbArc
 50
270.2430198837
 51
345.0
  0
ARC
  5
10D
330
1F
100
AcDbEntity
  8
0
  6
SLD-Plná
 62
     7
370
    25
100
AcDbCircle
 10
6844.7412118371
 20
5180.6297136493
 30
0.0
 40
2.000000000000616
100
AcDbArc
 50
15.1142942332
 51
87.3432090687
  0
ARC
  5
10E
330
1F
100
AcDbEntity
  8
0
  6
SLD-Plná
 62
     7
370
    25
100
AcDbCircle
 10
6943.2103853648
 20
5180.6297136493
 30
0.0
 40
2.000000000001219
100
AcDbArc
 50
92.5448862572
 51
164.8857057668
  0
LINE
  5
10F
330
1F
100
AcDbEntity
  8
0
  6
SLD-Plná
 62
     7
370
    25
100
AcDbLine
 10
6890.475798601
 20
5172.5534273078
 30
0.0
 11
6890.475798601
 21
5172.5023913636
 31
0.0
  0
LINE
  5
110
330
1F
100
AcDbEntity
  8
0
  6
SLD-Plná
 62
     7
370
    25
100
AcDbLine
 10
6897.475798601
 20
5172.5023913636
 30
0.0
 11
6897.475798601
 21
5172.5534273078
 31
0.0
  0
LINE
  5
111
330
1F
100
AcDbEntity
  8
0
  6
SLD-Plná
 62
     7
370
    25
100
AcDbLine
 10
6890.975798601
 20
5172.7540052141
 30
0.0
 11
6890.975798601
 21
5162.7954818777
 31
0.0
  0
LINE
  5
112
330
1F
100
AcDbEntity
  8
0
  6
SLD-Plná
 62
     7
370
    25
100
AcDbLine
 10
6896.975798601
 20
5162.7954818777
 30
0.0
 11
6896.975798601
 21
5172.7540052141
 31
0.0
  0
LINE
  5
113
330
1F
100
AcDbEntity
  8
0
  6
SLD-Plná
 62
     7
370
    25
100
AcDbLine
 10
6738.475798601
 20
5263.5534273078
 30
0.0
 11
6738.475798601
 21
5264.5534273078
 31
0.0
  0
LINE
  5
114
330
1F
100
AcDbEntity
  8
0
  6
SLD-Plná
 62
     7
370
    25
100
AcDbLine
 10
6726.475798601
 20
5263.5534273078
 30
0.0
 11
6738.475798601
 21
5263.5534273078
 31
0.0
  0
LINE
  5
115
330
1F
100
AcDbEntity
  8
0
  6
SLD-Plná
 62
     7
370
    25
100
AcDbLine
 10
6726.475798601
 20
5263.5534273078
 30
0.0
 11
6726.475798601
 21
5264.5534273078
 31
0.0
  0
LINE
  5
116
330
1F
100
AcDbEntity
  8
0
  6
SLD-Plná
 62
     7
370
    25
100
AcDbLine
 10
6726.475798601
 20
5264.5534273078
 30
0.0
 11
6738.475798601
 21
5264.5534273078
 31
0.0
  0
LINE
  5
117
330
1F
100
AcDbEntity
  8
0
  6
SLD-Plná
 62
     7
370
    25
100
AcDbLine
 10
7049.475798601
 20
5263.5534273078
 30
0.0
 11
7049.475798601
 21
5264.5534273078
 31
0.0
  0
LINE
  5
118
330
1F
100
AcDbEntity
  8
0
  6
SLD-Plná
 62
     7
370
    25
100
AcDbLine
 10
6738.475798601
 20
5263.5534273078
 30
0.0
 11
7049.475798601
 21
5263.5534273078
 31
0.0
  0
LINE
  5
119
330
1F
100
AcDbEntity
  8
0
  6
SLD-Plná
 62
     7
370
    25
100
AcDbLine
 10
6738.475798601
 20
5264.5534273078
 30
0.0
 11
7049.475798601
 21
5264.5534273078
 31
0.0
  0
LINE
  5
11A
330
1F
100
AcDbEntity
  8
0
  6
SLD-Plná
 62
     7
370
    25
100
AcDbLine
 10
7061.475798601
 20
5263.5534273078
 30
0.0
 11
7061.475798601
 21
5264.5534273078
 31
0.0
  0
LINE
  5
11B
330
1F
100
AcDbEntity
  8
0
  6
SLD-Plná
 62
     7
370
    25
100
AcDbLine
 10
7049.475798601
 20
5263.5534273078
 30
0.0
 11
7061.475798601
 21
5263.5534273078
 31
0.0
  0
LINE
  5
11C
330
1F
100
AcDbEntity
  8
0
  6
SLD-Plná
 62
     7
370
    25
100
AcDbLine
 10
7049.475798601
 20
5264.5534273078
 30
0.0
 11
7061.475798601
 21
5264.5534273078
 31
0.0
  0
SPLINE
  5
11D
330
1F
100
AcDbEntity
  8
0
  6
SLD-Plná
 62
     7
370
    25
100
AcDbSpline
210
0.0
220
0.0
230
1.0
 70
     8
 71
     3
 72
    10
 73
     6
 74
     0
 42
0.00000001
 43
0.00000001
 40
0.0
 40
0.0
 40
0.0
 40
0.0
 40
0.0000125331823417
 40
0.3612979301263581
 40
1.0
 40
1.0
 40
1.0
 40
1.0
 10
6941.895763929021
 20
5182.658756910127
 30
0.0
 10
6941.895773814972
 20
5182.658757420036
 30
0.0
 10
6942.180759168693
 20
5182.673456753518
 30
0.0
 10
6942.868166900555
 20
5182.712477222589
 30
0.0
 10
6943.016537022551
 20
5182.72064409485
 30
0.0
 10
6943.111302514292
 20
5182.725860358443
 30
0.0
  0
SPLINE
  5
11E
330
1F
100
AcDbEntity
  8
0
  6
SLD-Plná
 62
     7
370
    25
100
AcDbSpline
210
0.0
220
0.0
230
1.0
 70
     8
 71
     3
 72
    12
 73
     8
 74
     0
 42
0.00000001
 43
0.00000001
 40
0.0
 40
0.0
 40
0.0
 40
0.0
 40
0.2191412385911321
 40
0.5425591192197166
 40
0.8651712806005138
 40
0.9999937277325968
 40
1.0
 40
1.0
 40
1.0
 40
1.0
 10
6933.97420639805
 20
5182.639775787435
 30
0.0
 10
6934.67403895038
 20
5182.638171959162
 30
0.0
 10
6936.406713893876
 20
5182.634201133493
 30
0.0
 10
6939.005476184423
 20
5182.620754678267
 30
0.0
 10
6940.884839878111
 20
5182.62985858808
 30
0.0
 10
6941.693475286799
 20
5182.648329532971
 30
0.0
 10
6941.895754518939
 20
5182.658756425065
 30
0.0
 10
6941.895763929021
 20
5182.658756910127
 30
0.0
  0
SPLINE
  5
11F
330
1F
100
AcDbEntity
  8
0
  6
SLD-Plná
 62
     7
370
    25
100
AcDbSpline
210
0.0
220
0.0
230
1.0
 70
     8
 71
     3
 72
    13
 73
     9
 74
     0
 42
0.00000001
 43
0.00000001
 40
0.0
 40
0.0
 40
0.0
 40
0.0
 40
0.1232277944410802
 40
0.210914613394796
 40
0.2985934768245362
 40
0.4739284608567404
 40
0.6492551823104238
 40
1.0
 40
1.0
 40
1.0
 40
1.0
 10
6853.977390803871
 20
5182.639775787435
 30
0.0
 10
6857.263335334847
 20
5182.636185109203
 30
0.0
 10
6862.887502541044
 20
5182.63003936494
 30
0.0
 10
6870.849672784216
 20
5182.616039666595
 30
0.0
 10
6880.201312113642
 20
5182.600408008574
 30
0.0
 10
6891.889934967313
 20
5182.585462247015
 30
0.0
 10
6910.593381414248
 20
5182.601494907928
 30
0.0
 10
6924.621389092044
 20
5182.624462637766
 30
0.0
 10
6933.97420639805
 20
5182.639775787435
 30
0.0
  0
SPLINE
  5
120
330
1F
100
AcDbEntity
  8
0
  6
SLD-Plná
 62
     7
370
    25
100
AcDbSpline
210
0.0
220
0.0
230
1.0
 70
     8
 71
     3
 72
    12
 73
     8
 74
     0
 42
0.00000001
 43
0.00000001
 40
0.0
 40
0.0
 40
0.0
 40
0.0
 40
0.0000062754087307
 40
0.0363157081064678
 40
0.3567077686155563
 40
0.6771779874840572
 40
0.9999999999999999
 40
0.9999999999999999
 40
0.9999999999999999
 40
0.9999999999999999
 10
6846.055833272901
 20
5182.658756910127
 30
0.0
 10
6846.055842679457
 20
5182.658756425245
 30
0.0
 10
6846.110278297966
 20
5182.655950424835
 30
0.0
 10
6846.673373522635
 20
5182.632857820292
 30
0.0
 10
6848.147994969092
 20
5182.623866823066
 30
0.0
 10
6850.883796822935
 20
5182.627238604133
 30
0.0
 10
6852.943682584437
 20
5182.635586553324
 30
0.0
 10
6853.977390803871
 20
5182.639775787435
 30
0.0
  0
SPLINE
  5
121
330
1F
100
AcDbEntity
  8
0
  6
SLD-Plná
 62
     7
370
    25
100
AcDbSpline
210
0.0
220
0.0
230
1.0
 70
     8
 71
     3
 72
    10
 73
     6
 74
     0
 42
0.00000001
 43
0.00000001
 40
0.0
 40
0.0
 40
0.0
 40
0.0
 40
0.4204325786363252
 40
0.9999874675823743
 40
1.0
 40
1.0
 40
1.0
 40
1.0
 10
6844.840294687629
 20
5182.725860358443
 30
0.0
 10
6844.883193827819
 20
5182.723816623433
 30
0.0
 10
6844.985228267439
 20
5182.718955655228
 30
0.0
 10
6845.59847101324
 20
5182.682347319949
 30
0.0
 10
6846.055823383229
 20
5182.658757420228
 30
0.0
 10
6846.055833272901
 20
5182.658756910127
 30
0.0
  0
LINE
  5
122
330
1F
100
AcDbEntity
  8
0
  6
SLD-Plná
 62
     7
370
    25
100
AcDbLine
 10
6844.827332562
 20
5182.68214397
 30
0.0
 11
6844.8276480946
 21
5182.6832081432
 31
0.0
  0
SPLINE
  5
123
330
1F
100
AcDbEntity
  8
0
  6
SLD-Plná
 62
     7
370
    25
100
AcDbSpline
210
0.0
220
0.0
230
1.0
 70
     8
 71
     3
 72
    11
 73
     7
 74
     0
 42
0.00000001
 43
0.00000001
 40
0.0
 40
0.0
 40
0.0
 40
0.0
 40
0.2611890543202914
 40
0.3917703582818129
 40
0.5223450180020571
 40
1.0
 40
1.0
 40
1.0
 40
1.0
 10
6943.111302514292
 20
5182.725860358443
 30
0.0
 10
6943.114639272902
 20
5182.717072488672
 30
0.0
 10
6943.119644241889
 20
5182.703891128916
 30
0.0
 10
6943.12581244093
 20
5182.679847148575
 30
0.0
 10
6943.135249100497
 20
5182.641915578039
 30
0.0
 10
6943.128919708287
 20
5182.665044516172
 30
0.0
 10
6943.123949109166
 20
5182.6832081369
 30
0.0
  0
LWPOLYLINE
  5
124
330
1F
100
AcDbEntity
  8
0
  6
SLD-Plná
 62
     7
370
    25
100
AcDbPolyline
 90
        9
 70
   128
 43
0.0
 10
6853.975798601
 20
5181.1582668107
 10
6853.9760633596
 20
5181.4593889992
 10
6853.9763213571
 20
5181.7396020638
 10
6853.9765660046
 20
5181.9917500519
 10
6853.9767910544
 20
5182.209393724
 10
6853.9769907595
 20
5182.386974996
 10
6853.9771600198
 20
5182.5199588789
 10
6853.9772945128
 20
5182.6049492914
 10
6853.9773908039
 20
5182.6397757874
  0
SPLINE
  5
125
330
1F
100
AcDbEntity
  8
0
  6
SLD-Plná
 62
     7
370
    25
100
AcDbSpline
210
0.0
220
0.0
230
1.0
 70
     8
 71
     3
 72
    12
 73
     8
 74
     0
 42
0.00000001
 43
0.00000001
 40
0.0
 40
0.0
 40
0.0
 40
0.0
 40
0.2139974080456359
 40
0.427904630837369
 40
0.6434516801829243
 40
0.8607009148488286
 40
1.0
 40
1.0
 40
1.0
 40
1.0
 10
6853.975798600961
 20
5181.158266810737
 30
0.0
 10
6853.156710452762
 20
5181.154072532324
 30
0.0
 10
6851.518879345931
 20
5181.145685743096
 30
0.0
 10
6849.329741516797
 20
5181.141305071009
 30
0.0
 10
6847.665685854901
 20
5181.15802711861
 30
0.0
 10
6846.770483643021
 20
5181.242120949551
 30
0.0
 10
6846.681142302034
 20
5181.245965014101
 30
0.0
 10
6846.64623772845
 20
5181.247466843293
 30
0.0
  0
ARC
  5
126
330
1F
100
AcDbEntity
  8
0
  6
SLD-Plná
 62
     7
370
    25
100
AcDbCircle
 10
6844.7143873661
 20
5180.7298286883
 30
0.0
 40
1.999998770493185
100
AcDbArc
 50
15.0000113606
 51
86.3906319451
  0
ARC
  5
127
330
1F
100
AcDbEntity
  8
0
  6
SLD-Plná
 62
     7
370
    25
100
AcDbCircle
 10
6943.2372092746
 20
5180.7298290751
 30
0.0
 40
1.99999812825625
100
AcDbArc
 50
116.4679995555
 51
164.999995182
  0
SPLINE
  5
128
330
1F
100
AcDbEntity
  8
0
  6
SLD-Plná
 62
     7
370
    25
100
AcDbSpline
210
0.0
220
0.0
230
1.0
 70
     8
 71
     3
 72
    12
 73
     8
 74
     0
 42
0.00000001
 43
0.00000001
 40
0.0
 40
0.0
 40
0.0
 40
0.0
 40
0.211554363872228
 40
0.4229576480542142
 40
0.6389947374498494
 40
0.8550452538122578
 40
1.0
 40
1.0
 40
1.0
 40
1.0
 10
6941.305359473471
 20
5181.247466843293
 30
0.0
 10
6941.225434970455
 20
5181.241807716922
 30
0.0
 10
6941.065643041806
 20
5181.230493505597
 30
0.0
 10
6939.815462382981
 20
5181.142483194703
 30
0.0
 10
6937.978971356682
 20
5181.140969571908
 30
0.0
 10
6935.906918874294
 20
5181.152323804378
 30
0.0
 10
6934.529053886446
 20
5181.156564172261
 30
0.0
 10
6933.975798600961
 20
5181.158266810737
 30
0.0
  0
LWPOLYLINE
  5
129
330
1F
100
AcDbEntity
  8
0
  6
SLD-Plná
 62
     7
370
    25
100
AcDbPolyline
 90
        9
 70
   128
 43
0.0
 10
6933.975798601
 20
5181.1582668107
 10
6933.9755338423
 20
5181.4593889992
 10
6933.9752758449
 20
5181.7396020638
 10
6933.9750311974
 20
5181.9917500519
 10
6933.9748061475
 20
5182.209393724
 10
6933.9746064424
 20
5182.386974996
 10
6933.9744371821
 20
5182.5199588789
 10
6933.9743026891
 20
5182.6049492914
 10
6933.9742063981
 20
5182.6397757874
  0
SPLINE
  5
12A
330
1F
100
AcDbEntity
  8
0
  6
SLD-Plná
 62
     7
370
    25
100
AcDbSpline
210
0.0
220
0.0
230
1.0
 70
     8
 71
     3
 72
    13
 73
     9
 74
     0
 42
0.00000001
 43
0.00000001
 40
0.0
 40
0.0
 40
0.0
 40
0.0
 40
0.3507184713989752
 40
0.5260777107242782
 40
0.7014369531009395
 40
0.7891165499280896
 40
0.8767961462746763
 40
1.0
 40
1.0
 40
1.0
 40
1.0
 10
6933.975798600961
 20
5181.158266810737
 30
0.0
 10
6924.623311840931
 20
5181.142765656806
 30
0.0
 10
6910.594581604199
 20
5181.119513925748
 30
0.0
 10
6891.889578291331
 20
5181.103373694504
 30
0.0
 10
6880.198956243326
 20
5181.118432981602
 30
0.0
 10
6870.846471230037
 20
5181.134220049167
 30
0.0
 10
6862.884795848196
 20
5181.148379165536
 30
0.0
 10
6857.261235614616
 20
5181.154620470456
 30
0.0
 10
6853.975798600961
 20
5181.158266810737
 30
0.0
  0
SPLINE
  5
12B
330
1F
100
AcDbEntity
  8
0
  6
SLD-Plná
 62
     7
370
    25
100
AcDbSpline
210
0.0
220
0.0
230
1.0
 70
     8
 71
     3
 72
    12
 73
     8
 74
     0
 42
0.00000001
 43
0.00000001
 40
0.0
 40
0.0
 40
0.0
 40
0.0
 40
0.213876698044354
 40
0.427141840986235
 40
0.6396334240604772
 40
0.8511977894758245
 40
1.0
 40
1.0
 40
1.0
 40
1.0
 10
6847.648478983633
 20
5177.507051557508
 30
0.0
 10
6847.712157452896
 20
5177.531361493946
 30
0.0
 10
6847.839332310376
 20
5177.579911855435
 30
0.0
 10
6848.911971494074
 20
5177.646657254255
 30
0.0
 10
6850.495758610179
 20
5177.697963134359
 30
0.0
 10
6852.282972636298
 20
5177.726429271375
 30
0.0
 10
6853.481078083381
 20
5177.729447278089
 30
0.0
 10
6853.975798600961
 20
5177.730693470438
 30
0.0
  0
LINE
  5
12C
330
1F
100
AcDbEntity
  8
0
  6
SLD-Plná
 62
     7
370
    25
100
AcDbLine
 10
6846.6462377284
 20
5181.2474668433
 30
0.0
 11
6847.6484789836
 21
5177.5070515575
 31
0.0
  0
LINE
  5
12D
330
1F
100
AcDbEntity
  8
0
  6
SLD-Plná
 62
     7
370
    25
100
AcDbLine
 10
6853.975798601
 20
5181.1582668107
 30
0.0
 11
6853.975798601
 21
5177.7306934704
 31
0.0
  0
SPLINE
  5
12E
330
1F
100
AcDbEntity
  8
0
  6
SLD-Plná
 62
     7
370
    25
100
AcDbSpline
210
0.0
220
0.0
230
1.0
 70
     8
 71
     3
 72
    12
 73
     8
 74
     0
 42
0.00000001
 43
0.00000001
 40
0.0
 40
0.0
 40
0.0
 40
0.0
 40
0.2105386253213577
 40
0.4212043422481545
 40
0.6325807363061069
 40
0.845146771396744
 40
1.0
 40
1.0
 40
1.0
 40
1.0
 10
6933.975798600961
 20
5177.730693470438
 30
0.0
 10
6934.677716133698
 20
5177.728223207306
 30
0.0
 10
6936.081974911574
 20
5177.723281189867
 30
0.0
 10
6937.96170990633
 20
5177.684933773653
 30
0.0
 10
6939.395494194438
 20
5177.629024275087
 30
0.0
 10
6940.193657095969
 20
5177.566134453808
 30
0.0
 10
6940.270663114013
 20
5177.524569572304
 30
0.0
 10
6940.303118218289
 20
5177.507051557508
 30
0.0
  0
LINE
  5
12F
330
1F
100
AcDbEntity
  8
0
  6
SLD-Plná
 62
     7
370
    25
100
AcDbLine
 10
6933.975798601
 20
5181.1582668107
 30
0.0
 11
6933.975798601
 21
5177.7306934704
 31
0.0
  0
LINE
  5
130
330
1F
100
AcDbEntity
  8
0
  6
SLD-Plná
 62
     7
370
    25
100
AcDbLine
 10
6941.3053594735
 20
5181.2474668433
 30
0.0
 11
6940.3031182183
 21
5177.5070515575
 31
0.0
  0
LINE
  5
131
330
1F
100
AcDbEntity
  8
0
  6
SLD-Plná
 62
     7
370
    25
100
AcDbLine
 10
6853.975798601
 20
5177.7306934704
 30
0.0
 11
6933.975798601
 21
5177.7306934704
 31
0.0
  0
SPLINE
  5
132
330
1F
100
AcDbEntity
  8
0
  6
SLD-Plná
 62
     7
370
    25
100
AcDbSpline
210
0.0
220
0.0
230
1.0
 70
     8
 71
     3
 72
    12
 73
     8
 74
     0
 42
0.00000001
 43
0.00000001
 40
0.0
 40
0.0
 40
0.0
 40
0.0
 40
0.1489160798519956
 40
0.3606526943803918
 40
0.5733148967921913
 40
0.7865804978564961
 40
1.0
 40
1.0
 40
1.0
 40
1.0
 10
6853.975798600961
 20
5175.146644863235
 30
0.0
 10
6853.742928813731
 20
5175.145393765532
 30
0.0
 10
6853.178952671681
 20
5175.142363792156
 30
0.0
 10
6852.339655170284
 20
5175.113785891835
 30
0.0
 10
6851.601379428054
 20
5175.062298621565
 30
0.0
 10
6851.10798782427
 20
5174.995362145838
 30
0.0
 10
6851.055481837982
 20
5174.946546475263
 30
0.0
 10
6851.029219375644
 20
5174.922129836311
 30
0.0
  0
ARC
  5
133
330
1F
100
AcDbEntity
  8
0
  6
SLD-Plná
 62
     7
370
    25
100
AcDbCircle
 10
6851.0205023978
 20
5178.413973724
 30
0.0
 40
3.491854768143169
100
AcDbArc
 50
195.0537484237
 51
270.143031882
  0
LINE
  5
134
330
1F
100
AcDbEntity
  8
0
  6
SLD-Plná
 62
     7
370
    25
100
AcDbLine
 10
6853.975798601
 20
5177.7306934704
 30
0.0
 11
6853.975798601
 21
5175.1466448632
 31
0.0
  0
ARC
  5
135
330
1F
100
AcDbEntity
  8
0
  6
SLD-Plná
 62
     7
370
    25
100
AcDbCircle
 10
6936.9310948041
 20
5178.413973724
 30
0.0
 40
3.491854768142677
100
AcDbArc
 50
269.856968118
 51
344.9462515764
  0
SPLINE
  5
136
330
1F
100
AcDbEntity
  8
0
  6
SLD-Plná
 62
     7
370
    25
100
AcDbSpline
210
0.0
220
0.0
230
1.0
 70
     8
 71
     3
 72
    12
 73
     8
 74
     0
 42
0.00000001
 43
0.00000001
 40
0.0
 40
0.0
 40
0.0
 40
0.0
 40
0.1544612094834635
 40
0.3669357317394008
 40
0.578460474542586
 40
0.7893093633729186
 40
1.0
 40
1.0
 40
1.0
 40
1.0
 10
6936.922377826277
 20
5174.922129836311
 30
0.0
 10
6936.909733878708
 20
5174.93972341019
 30
0.0
 10
6936.87969710657
 20
5174.981518440322
 30
0.0
 10
6936.514807065701
 20
5175.044609740727
 30
0.0
 10
6935.848498026916
 20
5175.10070874189
 30
0.0
 10
6934.967258096159
 20
5175.139201655343
 30
0.0
 10
6934.306202375979
 20
5175.144164414969
 30
0.0
 10
6933.975798600961
 20
5175.146644863235
 30
0.0
  0
LINE
  5
137
330
1F
100
AcDbEntity
  8
0
  6
SLD-Plná
 62
     7
370
    25
100
AcDbLine
 10
6933.975798601
 20
5177.7306934704
 30
0.0
 11
6933.975798601
 21
5175.1466448632
 31
0.0
  0
LINE
  5
138
330
1F
100
AcDbEntity
  8
0
  6
SLD-Plná
 62
     7
370
    25
100
AcDbLine
 10
6933.975798601
 20
5175.1466448632
 30
0.0
 11
6853.975798601
 21
5175.1466448632
 31
0.0
  0
SPLINE
  5
139
330
1F
100
AcDbEntity
  8
0
  6
SLD-Plná
 62
     7
370
    25
100
AcDbSpline
210
0.0
220
0.0
230
1.0
 70
     8
 71
     3
 72
     9
 73
     5
 74
     0
 42
0.00000001
 43
0.00000001
 40
0.0
 40
0.0
 40
0.0
 40
0.0
 40
0.4377294814215187
 40
1.0
 40
1.0
 40
1.0
 40
1.0
 10
6890.475798600961
 20
5172.553427307757
 30
0.0
 10
6890.490857437427
 20
5172.553492163008
 30
0.0
 10
6890.525259590137
 20
5172.553640325864
 30
0.0
 10
6890.813646911964
 20
5172.554652144318
 30
0.0
 10
6890.975798600961
 20
5172.555221060004
 30
0.0
  0
SPLINE
  5
13A
330
1F
100
AcDbEntity
  8
0
  6
SLD-Plná
 62
     7
370
    25
100
AcDbSpline
210
0.0
220
0.0
230
1.0
 70
     8
 71
     3
 72
     9
 73
     5
 74
     0
 42
0.00000001
 43
0.00000001
 40
0.0
 40
0.0
 40
0.0
 40
0.0
 40
0.6150326978177955
 40
1.0
 40
1.0
 40
1.0
 40
1.0
 10
6896.963417343149
 20
5172.555274050903
 30
0.0
 10
6897.140383583028
 20
5172.554647425804
 30
0.0
 10
6897.428118268527
 20
5172.553628577371
 30
0.0
 10
6897.462545314103
 20
5172.55348325292
 30
0.0
 10
6897.475798600961
 20
5172.553427307757
 30
0.0
  0
SPLINE
  5
13B
330
1F
100
AcDbEntity
  8
0
  6
SLD-Plná
 62
     7
370
    25
100
AcDbSpline
210
0.0
220
0.0
230
1.0
 70
     8
 71
     3
 72
    18
 73
    14
 74
     0
 42
0.00000001
 43
0.00000001
 40
0.0
 40
0.0
 40
0.0
 40
0.0
 40
0.0742609979200878
 40
0.1733497324168416
 40
0.2724235432113903
 40
0.3714862349792324
 40
0.4705489810886211
 40
0.5696229112540921
 40
0.668711744065707
 40
0.7307485346749176
 40
0.8298415771672082
 40
0.928934871150289
 40
1.0
 40
1.0
 40
1.0
 40
1.0
 10
6905.030935812179
 20
5172.682833486637
 30
0.0
 10
6905.199389310628
 20
5172.686072515567
 30
0.0
 10
6905.592615495281
 20
5172.693633480459
 30
0.0
 10
6906.433093662422
 20
5172.701562683921
 30
0.0
 10
6907.443231726658
 20
5172.704559343624
 30
0.0
 10
6908.454215344538
 20
5172.701186595381
 30
0.0
 10
6909.346303239776
 20
5172.692081011459
 30
0.0
 10
6910.020714043298
 20
5172.678760627618
 30
0.0
 10
6910.353121778455
 20
5172.665208109636
 30
0.0
 10
6910.446778978378
 20
5172.651715121088
 30
0.0
 10
6910.294056741081
 20
5172.63902912832
 30
0.0
 10
6909.85147775258
 20
5172.62809586921
 30
0.0
 10
6909.418260452682
 20
5172.623321607035
 30
0.0
 10
6909.237331159119
 20
5172.621327679546
 30
0.0
  0
ELLIPSE
  5
13C
330
1F
100
AcDbEntity
  8
0
  6
SLD-Plná
 62
     7
370
    25
100
AcDbEllipse
 10
6893.3181142885
 20
6072.5534273078
 30
0.0
 11
0.0
 21
899.9999999999991
 31
0.0
210
0.0
220
0.0
230
1.0
 40
0.7674734814
 41
3.148499989312333
 42
3.158550724765625
  0
SPLINE
  5
13D
330
1F
100
AcDbEntity
  8
0
  6
SLD-Plná
 62
     7
370
    25
100
AcDbSpline
210
0.0
220
0.0
230
1.0
 70
     8
 71
     3
 72
    16
 73
    12
 74
     0
 42
0.00000001
 43
0.00000001
 40
0.0
 40
0.0
 40
0.0
 40
0.0
 40
0.1171163762594437
 40
0.2342327681701447
 40
0.3513488432019568
 40
0.4684649311638529
 40
0.5855815042494941
 40
0.7026991298703099
 40
0.8198183298481669
 40
0.9369391079310052
 40
1.0
 40
1.0
 40
1.0
 40
1.0
 10
6900.192351317667
 20
5172.562827184463
 30
0.0
 10
6900.04844829288
 20
5172.562427848999
 30
0.0
 10
6899.760642224072
 20
5172.561629178018
 30
0.0
 10
6899.247052263721
 20
5172.56135350675
 30
0.0
 10
6898.744476685303
 20
5172.561745563487
 30
0.0
 10
6898.300163067859
 20
5172.56288006945
 30
0.0
 10
6897.966864258719
 20
5172.564737084858
 30
0.0
 10
6897.780922133836
 20
5172.567258405795
 30
0.0
 10
6897.765575577637
 20
5172.57024550475
 30
0.0
 10
6897.891753268502
 20
5172.572925140957
 30
0.0
 10
6898.037977387573
 20
5172.574386016749
 30
0.0
 10
6898.089153644198
 20
5172.574897301446
 30
0.0
  0
ELLIPSE
  5
13E
330
1F
100
AcDbEntity
  8
0
  6
SLD-Plná
 62
     7
370
    25
100
AcDbEllipse
 10
6894.8327458811
 20
6072.5534273078
 30
0.0
 11
1172.678954815445
 21
0.0
 31
0.0
210
0.0
220
0.0
230
1.0
 40
0.7674734814
 41
4.716959390788787
 42
4.724672775092879
  0
SPLINE
  5
13F
330
1F
100
AcDbEntity
  8
0
  6
SLD-Plná
 62
     7
370
    25
100
AcDbSpline
210
0.0
220
0.0
230
1.0
 70
     8
 71
     3
 72
    13
 73
     9
 74
     0
 42
0.00000001
 43
0.00000001
 40
0.0
 40
0.0
 40
0.0
 40
0.0
 40
0.0834705112650819
 40
0.2815990415242434
 40
0.4797275807761388
 40
0.6778570793118658
 40
0.875986990020568
 40
1.0
 40
1.0
 40
1.0
 40
1.0
 10
6912.584494253134
 20
5172.558342255016
 30
0.0
 10
6912.725578333798
 20
5172.558383682413
 30
0.0
 10
6913.201544531762
 20
5172.558523443333
 30
0.0
 10
6914.019331741768
 20
5172.557989937573
 30
0.0
 10
6914.912014499325
 20
5172.556461776727
 30
0.0
 10
6915.582541846016
 20
5172.554703756352
 30
0.0
 10
6915.928296657484
 20
5172.553586778947
 30
0.0
 10
6915.962595013189
 20
5172.553471634194
 30
0.0
 10
6915.975798600961
 20
5172.553427307757
 30
0.0
  0
ELLIPSE
  5
140
330
1F
100
AcDbEntity
  8
0
  6
SLD-Plná
 62
     7
370
    25
100
AcDbEllipse
 10
6889.975798601
 20
6072.5534273078
 30
0.0
 11
6841.052550594288
 21
0.0
 31
0.0
210
0.0
220
0.0
230
1.0
 40
0.1315587029
 41
4.714041409289008
 42
4.715693842705338
  0
SPLINE
  5
141
330
1F
100
AcDbEntity
  8
0
  6
SLD-Plná
 62
     7
370
    25
100
AcDbSpline
210
0.0
220
0.0
230
1.0
 70
     8
 71
     3
 72
    12
 73
     8
 74
     0
 42
0.00000001
 43
0.00000001
 40
0.0
 40
0.0
 40
0.0
 40
0.0
 40
0.1710195486497562
 40
0.4053004608949005
 40
0.6395816096893809
 40
0.8738629742221701
 40
1.0
 40
1.0
 40
1.0
 40
1.0
 10
6899.992559290736
 20
5172.553454916772
 30
0.0
 10
6899.994753236458
 20
5172.553458858952
 30
0.0
 10
6899.999952684237
 20
5172.55346820155
 30
0.0
 10
6900.204289312987
 20
5172.553794940407
 30
0.0
 10
6900.550632489824
 20
5172.554229779895
 30
0.0
 10
6900.936786220028
 20
5172.554550369785
 30
0.0
 10
6901.191132033513
 20
5172.554628647055
 30
0.0
 10
6901.280146427047
 20
5172.554656042056
 30
0.0
  0
SPLINE
  5
142
330
1F
100
AcDbEntity
  8
0
  6
SLD-Plná
 62
     7
370
    25
100
AcDbSpline
210
0.0
220
0.0
230
1.0
 70
     8
 71
     3
 72
    12
 73
     8
 74
     0
 42
0.00000001
 43
0.00000001
 40
0.0
 40
0.0
 40
0.0
 40
0.0
 40
0.2341906518234743
 40
0.4683812949368673
 40
0.7025721330635085
 40
0.936762957658958
 40
1.0
 40
1.0
 40
1.0
 40
1.0
 10
6886.671450774874
 20
5172.554656042056
 30
0.0
 10
6886.83633640901
 20
5172.554592562011
 30
0.0
 10
6887.16610767115
 20
5172.554465601922
 30
0.0
 10
6887.580247139204
 20
5172.554018135419
 30
0.0
 10
6887.858571797259
 20
5172.553624641481
 30
0.0
 10
6887.987437398153
 20
5172.553408116904
 30
0.0
 10
6887.964017324246
 20
5172.553446711136
 30
0.0
 10
6887.959037911186
 20
5172.553454916772
 30
0.0
  0
ELLIPSE
  5
143
330
1F
100
AcDbEntity
  8
0
  6
SLD-Plná
 62
     7
370
    25
100
AcDbEllipse
 10
6897.975798601
 20
6072.5534273078
 30
0.0
 11
6841.052550595001
 21
0.0
 31
0.0
210
0.0
220
0.0
230
1.0
 40
0.1315587029
 41
4.709084118064045
 42
4.710736551480375
  0
SPLINE
  5
144
330
1F
100
AcDbEntity
  8
0
  6
SLD-Plná
 62
     7
370
    25
100
AcDbSpline
210
0.0
220
0.0
230
1.0
 70
     8
 71
     3
 72
    13
 73
     9
 74
     0
 42
0.00000001
 43
0.00000001
 40
0.0
 40
0.0
 40
0.0
 40
0.0
 40
0.1360925265785909
 40
0.3343589614262246
 40
0.5326261620685744
 40
0.7308941304864665
 40
0.9291616701876935
 40
1.0
 40
1.0
 40
1.0
 40
1.0
 10
6872.012423821531
 20
5172.553548159426
 30
0.0
 10
6872.013585875083
 20
5172.553553076129
 30
0.0
 10
6872.016440866671
 20
5172.553565155729
 30
0.0
 10
6872.408740158916
 20
5172.554824098108
 30
0.0
 10
6873.089712490199
 20
5172.556570599505
 30
0.0
 10
6873.99474131188
 20
5172.558064543045
 30
0.0
 10
6874.793484705861
 20
5172.558522435599
 30
0.0
 10
6875.247571101033
 20
5172.558379801448
 30
0.0
 10
6875.367102948787
 20
5172.558342255016
 30
0.0
  0
SPLINE
  5
145
330
1F
100
AcDbEntity
  8
0
  6
SLD-Plná
 62
     7
370
    25
100
AcDbSpline
210
0.0
220
0.0
230
1.0
 70
     8
 71
     3
 72
    17
 73
    13
 74
     0
 42
0.00000001
 43
0.00000001
 40
0.0
 40
0.0
 40
0.0
 40
0.0
 40
0.0991416405955804
 40
0.1982830261475451
 40
0.2974308204276138
 40
0.3965867888846555
 40
0.4957455433310132
 40
0.5948980399053512
 40
0.6940367476943811
 40
0.7931616514544425
 40
0.892281604316557
 40
1.0
 40
1.0
 40
1.0
 40
1.0
 10
6878.714266042803
 20
5172.621327679546
 30
0.0
 10
6878.466842055544
 20
5172.62421484775
 30
0.0
 10
6877.971994717533
 20
5172.629989176731
 30
0.0
 10
6877.574529370533
 20
5172.642952317137
 30
0.0
 10
6877.49669800373
 20
5172.657922306812
 30
0.0
 10
6877.766027751757
 20
5172.673633384618
 30
0.0
 10
6878.347301032621
 20
5172.687931267257
 30
0.0
 10
6879.175816716009
 20
5172.698678947238
 30
0.0
 10
6880.159523500488
 20
5172.704123123061
 30
0.0
 10
6881.180806423927
 20
5172.703258194112
 30
0.0
 10
6882.17773459766
 20
5172.696308231685
 30
0.0
 10
6882.666249797488
 20
5172.687447846194
 30
0.0
 10
6882.92066138974
 20
5172.682833486637
 30
0.0
  0
ELLIPSE
  5
146
330
1F
100
AcDbEntity
  8
0
  6
SLD-Plná
 62
     7
370
    25
100
AcDbEllipse
 10
6893.1188513208
 20
6072.5534273078
 30
0.0
 11
1172.678954815477
 21
0.0
 31
0.0
210
0.0
220
0.0
230
1.0
 40
0.7674734814
 41
4.700105185676522
 42
4.707818569980613
  0
SPLINE
  5
147
330
1F
100
AcDbEntity
  8
0
  6
SLD-Plná
 62
     7
370
    25
100
AcDbSpline
210
0.0
220
0.0
230
1.0
 70
     8
 71
     3
 72
    16
 73
    12
 74
     0
 42
0.00000001
 43
0.00000001
 40
0.0
 40
0.0
 40
0.0
 40
0.0
 40
0.1171210650370431
 40
0.2342421080881957
 40
0.3513634273607805
 40
0.4684836330389993
 40
0.5856021642724546
 40
0.7027193053238744
 40
0.8198356338687655
 40
0.9369516765808329
 40
1.0
 40
1.0
 40
1.0
 40
1.0
 10
6889.862443557724
 20
5172.574897301446
 30
0.0
 10
6889.951981925206
 20
5172.57392102854
 30
0.0
 10
6890.131058643363
 20
5172.57196848291
 30
0.0
 10
6890.199275951269
 20
5172.568815665205
 30
0.0
 10
6890.104995663935
 20
5172.566017550069
 30
0.0
 10
6889.846594976314
 20
5172.563787409485
 30
0.0
 10
6889.456628631018
 20
5172.562264251941
 30
0.0
 10
6888.977647795465
 20
5172.561469723169
 30
0.0
 10
6888.46591010829
 20
5172.561407787718
 30
0.0
 10
6888.047586701395
 20
5172.5619369159
 30
0.0
 10
6887.833992827465
 20
5172.562596399053
 30
0.0
 10
6887.759245884255
 20
5172.562827184463
 30
0.0
  0
ELLIPSE
  5
148
330
1F
100
AcDbEntity
  8
0
  6
SLD-Plná
 62
     7
370
    25
100
AcDbEllipse
 10
6894.6334829134
 20
6072.5534273078
 30
0.0
 11
0.0
 21
899.9999999999991
 31
0.0
210
0.0
220
0.0
230
1.0
 40
0.7674734814
 41
3.124634582413977
 42
3.134685317867272
  0
SPLINE
  5
149
330
1F
100
AcDbEntity
  8
0
  6
SLD-Plná
 62
     7
370
    25
100
AcDbSpline
210
0.0
220
0.0
230
1.0
 70
     8
 71
     3
 72
    17
 73
    13
 74
     0
 42
0.00000001
 43
0.00000001
 40
0.0
 40
0.0
 40
0.0
 40
0.0
 40
0.0658297698436368
 40
0.1732431797764212
 40
0.2806539698481377
 40
0.3880444230725107
 40
0.4954054704066169
 40
0.6027442244170624
 40
0.7100812955839494
 40
0.8174383286419249
 40
0.924824785356214
 40
1.0
 40
1.0
 40
1.0
 40
1.0
 10
6891.0162126493
 20
5172.754106548034
 30
0.0
 10
6891.012715925809
 20
5172.75847128859
 30
0.0
 10
6891.003513653073
 20
5172.769957908317
 30
0.0
 10
6891.368903542779
 20
5172.788699592519
 30
0.0
 10
6892.028862305792
 20
5172.806837325534
 30
0.0
 10
6892.922639818426
 20
5172.819171988001
 30
0.0
 10
6893.931435922664
 20
5172.82375734063
 30
0.0
 10
6894.945066889627
 20
5172.819890149677
 30
0.0
 10
6895.852935289127
 20
5172.808168835255
 30
0.0
 10
6896.535169491994
 20
5172.79044550832
 30
0.0
 10
6896.937420455293
 20
5172.771247972591
 30
0.0
 10
6896.931936309672
 20
5172.759105964947
 30
0.0
 10
6896.9296780491
 20
5172.754106131059
 30
0.0
  0
LINE
  5
14A
330
1F
100
AcDbEntity
  8
0
  6
SLD-Plná
 62
     7
370
    25
100
AcDbLine
 10
6848.2807026668
 20
5175.14756065
 30
0.0
 11
6847.6484789836
 21
5177.5070515575
 31
0.0
  0
LINE
  5
14B
330
1F
100
AcDbEntity
  8
0
  6
SLD-Plná
 62
     7
370
    25
100
AcDbLine
 10
6940.3031182183
 20
5177.5070515575
 30
0.0
 11
6939.6708945351
 21
5175.14756065
 31
0.0
  0
LINE
  5
14C
330
1F
100
AcDbEntity
  8
0
  6
SLD-Plná
 62
     7
370
    25
100
AcDbLine
 10
6896.975798601
 20
5162.7954818777
 30
0.0
 11
6890.975798601
 21
5162.7954818777
 31
0.0
  0
LINE
  5
14D
330
1F
100
AcDbEntity
  8
0
  6
SLD-Plná
 62
     8
370
    25
100
AcDbLine
 10
6844.8276480946
 20
5182.6832081432
 30
0.0
 11
6844.8402946876
 21
5182.7258603584
 31
0.0
  0
ARC
  5
14E
330
1F
100
AcDbEntity
  8
0
  6
SLD-Plná
 62
     8
370
    25
100
AcDbCircle
 10
6943.2372103532
 20
5180.729827208
 30
0.0
 40
2.000000280441664
100
AcDbArc
 50
93.6093801789
 51
116.4680033781
  0
LINE
  5
14F
330
1F
100
AcDbEntity
  8
0
  6
SLD-Plná
 62
     8
370
    25
100
AcDbLine
 10
6851.0292193756
 20
5174.9221298363
 30
0.0
 11
6851.6614430589
 21
5172.5534273078
 31
0.0
  0
LINE
  5
150
330
1F
100
AcDbEntity
  8
0
  6
SLD-Plná
 62
     8
370
    25
100
AcDbLine
 10
6936.290154143
 20
5172.5534273078
 30
0.0
 11
6936.9223778263
 21
5174.9221298363
 31
0.0
  0
LINE
  5
151
330
1F
100
AcDbEntity
  8
0
  6
SLD-Plná
 62
     8
370
    25
100
AcDbLine
 10
6900.1923513177
 20
5172.5628271845
 30
0.0
 11
6900.1923513177
 21
5172.5979991412
 31
0.0
  0
LINE
  5
152
330
1F
100
AcDbEntity
  8
0
  6
SLD-Plná
 62
     8
370
    25
100
AcDbLine
 10
6887.7592458843
 20
5172.5628271845
 30
0.0
 11
6887.7592458843
 21
5172.5979991412
 31
0.0
  0
ENDSEC
  0
SECTION
  2
OBJECTS
  0
DICTIONARY
  5
C
330
0
100
AcDbDictionary
281
     1
  3
ACAD_GROUP
350
D
  3
ACAD_LAYOUT
350
1A
  3
ACAD_MLINESTYLE
350
17
  3
ACAD_PLOTSETTINGS
350
19
  3
ACAD_PLOTSTYLENAME
350
E
  3
ACAD_SCALELIST
350
47
  3
DWGPROPS
350
153
  0
DICTIONARY
  5
D
102
{ACAD_REACTORS
330
C
102
}
330
C
100
AcDbDictionary
281
     1
  0
DICTIONARY
  5
1A
102
{ACAD_REACTORS
330
C
102
}
330
C
100
AcDbDictionary
281
     1
  3
Layout1
350
1E
  3
Layout2
350
26
  3
Model
350
22
  0
DICTIONARY
  5
17
102
{ACAD_REACTORS
330
C
102
}
330
C
100
AcDbDictionary
281
     1
  3
Standard
350
18
  0
DICTIONARY
  5
19
102
{ACAD_REACTORS
330
C
102
}
330
C
100
AcDbDictionary
281
     1
  0
ACDBDICTIONARYWDFLT
  5
E
102
{ACAD_REACTORS
330
C
102
}
330
C
100
AcDbDictionary
281
     1
  3
Normal
350
F
100
AcDbDictionaryWithDefault
340
F
  0
DICTIONARY
  5
47
102
{ACAD_REACTORS
330
C
102
}
330
C
100
AcDbDictionary
281
     1
  3
A0
350
48
  3
A1
350
49
  3
A2
350
4A
  3
A3
350
4B
  3
A4
350
4C
  3
A5
350
4D
  3
A6
350
4E
  3
A7
350
4F
  3
A8
350
50
  3
A9
350
51
  3
B0
350
52
  3
B1
350
53
  3
B2
350
54
  3
B3
350
55
  3
B4
350
56
  3
B5
350
57
  3
B6
350
58
  3
B7
350
59
  3
B8
350
5A
  3
B9
350
5B
  3
C0
350
5C
  3
C1
350
5D
  3
C2
350
5E
  3
C3
350
5F
  3
C4
350
60
  3
C5
350
61
  3
C6
350
62
  3
C7
350
63
  3
C8
350
64
  3
C9
350
65
  3
D0
350
66
  3
D1
350
67
  3
D2
350
68
  0
XRECORD
  5
153
102
{ACAD_REACTORS
330
C
102
}
330
C
100
AcDbXrecord
280
     1
  1
DWGPROPS COOKIE
  2

  3

  4

  6

  7

  8
radek.stransky
  9

300
=
301
=
302
=
303
=
304
=
305
=
306
=
307
=
308
=
309
=
 40
0.0
 41
2460648.420456377
 42
2460648.420457292
  1

 90
        0
  0
LAYOUT
  5
1E
102
{ACAD_REACTORS
330
1A
102
}
330
1A
100
AcDbPlotSettings
  1

  2
none_device
  4

  6

 40
0.0
 41
0.0
 42
0.0
 43
0.0
 44
0.0
 45
0.0
 46
0.0
 47
0.0
 48
0.0
 49
0.0
140
0.0
141
0.0
142
1.0
143
1.0
 70
   688
 72
     1
 73
     0
 74
     5
  7

 75
    16
147
1.0
148
0.0
149
0.0
100
AcDbLayout
  1
Layout1
 70
     1
 71
     1
 10
0.0
 20
0.0
 11
420.0
 21
297.0
 12
0.0
 22
0.0
 32
0.0
 14
1.0000000000E+20
 24
1.0000000000E+20
 34
1.0000000000E+20
 15
-1.0000000000E+20
 25
-1.0000000000E+20
 35
-1.0000000000E+20
146
0.0
 13
0.0
 23
0.0
 33
0.0
 16
1.0
 26
0.0
 36
0.0
 17
0.0
 27
1.0
 37
0.0
 76
     0
330
1B
  0
LAYOUT
  5
26
102
{ACAD_REACTORS
330
1A
102
}
330
1A
100
AcDbPlotSettings
  1

  2
none_device
  4

  6

 40
0.0
 41
0.0
 42
0.0
 43
0.0
 44
0.0
 45
0.0
 46
0.0
 47
0.0
 48
0.0
 49
0.0
140
0.0
141
0.0
142
1.0
143
1.0
 70
   688
 72
     1
 73
     0
 74
     5
  7

 75
    16
147
1.0
148
0.0
149
0.0
100
AcDbLayout
  1
Layout2
 70
     1
 71
     2
 10
0.0
 20
0.0
 11
0.0
 21
0.0
 12
0.0
 22
0.0
 32
0.0
 14
0.0
 24
0.0
 34
0.0
 15
0.0
 25
0.0
 35
0.0
146
0.0
 13
0.0
 23
0.0
 33
0.0
 16
1.0
 26
0.0
 36
0.0
 17
0.0
 27
1.0
 37
0.0
 76
     0
330
23
  0
LAYOUT
  5
22
102
{ACAD_REACTORS
330
1A
102
}
330
1A
100
AcDbPlotSettings
  1

  2
none_device
  4
Letter_(8.50_x_11.00_Inches)
  6

 40
6.35
 41
6.35
 42
6.35000508
 43
6.35000508
 44
215.9
 45
279.4
 46
0.0
 47
0.0
 48
0.0
 49
0.0
140
0.0
141
0.0
142
1.0
143
1.0
 70
  1712
 72
     1
 73
     0
 74
     0
  7

 75
     0
147
1.0
148
0.0
149
0.0
100
AcDbLayout
  1
Model
 70
     1
 71
     0
 10
0.0
 20
0.0
 11
20000.0
 21
10000.0
 12
0.0
 22
0.0
 32
0.0
 14
0.0
 24
0.0
 34
0.0
 15
20000.0
 25
10000.0
 35
0.0
146
0.0
 13
0.0
 23
0.0
 33
0.0
 16
1.0
 26
0.0
 36
0.0
 17
0.0
 27
1.0
 37
0.0
 76
     0
330
1F
331
29
  0
MLINESTYLE
  5
18
102
{ACAD_REACTORS
330
17
102
}
330
17
100
AcDbMlineStyle
  2
Standard
 70
     0
  3

 62
   256
 51
90.0
 52
90.0
 71
     2
 49
0.5
 62
   256
  6
BYLAYER
 49
-0.5
 62
   256
  6
BYLAYER
  0
ACDBPLACEHOLDER
  5
F
102
{ACAD_REACTORS
330
E
102
}
330
E
  0
SCALE
  5
48
102
{ACAD_REACTORS
330
47
102
}
330
47
100
AcDbScale
 70
     0
300
1:1
140
1.0
141
1.0
290
     1
  0
SCALE
  5
49
102
{ACAD_REACTORS
330
47
102
}
330
47
100
AcDbScale
 70
     0
300
1:2
140
1.0
141
2.0
290
     0
  0
SCALE
  5
4A
102
{ACAD_REACTORS
330
47
102
}
330
47
100
AcDbScale
 70
     0
300
1:4
140
1.0
141
4.0
290
     0
  0
SCALE
  5
4B
102
{ACAD_REACTORS
330
47
102
}
330
47
100
AcDbScale
 70
     0
300
1:5
140
1.0
141
5.0
290
     0
  0
SCALE
  5
4C
102
{ACAD_REACTORS
330
47
102
}
330
47
100
AcDbScale
 70
     0
300
1:8
140
1.0
141
8.0
290
     0
  0
SCALE
  5
4D
102
{ACAD_REACTORS
330
47
102
}
330
47
100
AcDbScale
 70
     0
300
1:10
140
1.0
141
10.0
290
     0
  0
SCALE
  5
4E
102
{ACAD_REACTORS
330
47
102
}
330
47
100
AcDbScale
 70
     0
300
1:16
140
1.0
141
16.0
290
     0
  0
SCALE
  5
4F
102
{ACAD_REACTORS
330
47
102
}
330
47
100
AcDbScale
 70
     0
300
1:20
140
1.0
141
20.0
290
     0
  0
SCALE
  5
50
102
{ACAD_REACTORS
330
47
102
}
330
47
100
AcDbScale
 70
     0
300
1:30
140
1.0
141
30.0
290
     0
  0
SCALE
  5
51
102
{ACAD_REACTORS
330
47
102
}
330
47
100
AcDbScale
 70
     0
300
1:40
140
1.0
141
40.0
290
     0
  0
SCALE
  5
52
102
{ACAD_REACTORS
330
47
102
}
330
47
100
AcDbScale
 70
     0
300
1:50
140
1.0
141
50.0
290
     0
  0
SCALE
  5
53
102
{ACAD_REACTORS
330
47
102
}
330
47
100
AcDbScale
 70
     0
300
1:100
140
1.0
141
100.0
290
     0
  0
SCALE
  5
54
102
{ACAD_REACTORS
330
47
102
}
330
47
100
AcDbScale
 70
     0
300
2:1
140
2.0
141
1.0
290
     0
  0
SCALE
  5
55
102
{ACAD_REACTORS
330
47
102
}
330
47
100
AcDbScale
 70
     0
300
4:1
140
4.0
141
1.0
290
     0
  0
SCALE
  5
56
102
{ACAD_REACTORS
330
47
102
}
330
47
100
AcDbScale
 70
     0
300
8:1
140
8.0
141
1.0
290
     0
  0
SCALE
  5
57
102
{ACAD_REACTORS
330
47
102
}
330
47
100
AcDbScale
 70
     0
300
10:1
140
10.0
141
1.0
290
     0
  0
SCALE
  5
58
102
{ACAD_REACTORS
330
47
102
}
330
47
100
AcDbScale
 70
     0
300
100:1
140
100.0
141
1.0
290
     0
  0
SCALE
  5
59
102
{ACAD_REACTORS
330
47
102
}
330
47
100
AcDbScale
 70
     0
300
1/128" = 1'-0"
140
0.0078125
141
12.0
290
     0
  0
SCALE
  5
5A
102
{ACAD_REACTORS
330
47
102
}
330
47
100
AcDbScale
 70
     0
300
1/64" = 1'-0"
140
0.015625
141
12.0
290
     0
  0
SCALE
  5
5B
102
{ACAD_REACTORS
330
47
102
}
330
47
100
AcDbScale
 70
     0
300
1/32" = 1'-0"
140
0.03125
141
12.0
290
     0
  0
SCALE
  5
5C
102
{ACAD_REACTORS
330
47
102
}
330
47
100
AcDbScale
 70
     0
300
1/16" = 1'-0"
140
0.0625
141
12.0
290
     0
  0
SCALE
  5
5D
102
{ACAD_REACTORS
330
47
102
}
330
47
100
AcDbScale
 70
     0
300
3/32" = 1'-0"
140
0.09375
141
12.0
290
     0
  0
SCALE
  5
5E
102
{ACAD_REACTORS
330
47
102
}
330
47
100
AcDbScale
 70
     0
300
1/8" = 1'-0"
140
0.125
141
12.0
290
     0
  0
SCALE
  5
5F
102
{ACAD_REACTORS
330
47
102
}
330
47
100
AcDbScale
 70
     0
300
3/16" = 1'-0"
140
0.1875
141
12.0
290
     0
  0
SCALE
  5
60
102
{ACAD_REACTORS
330
47
102
}
330
47
100
AcDbScale
 70
     0
300
1/4" = 1'-0"
140
0.25
141
12.0
290
     0
  0
SCALE
  5
61
102
{ACAD_REACTORS
330
47
102
}
330
47
100
AcDbScale
 70
     0
300
3/8" = 1'-0"
140
0.375
141
12.0
290
     0
  0
SCALE
  5
62
102
{ACAD_REACTORS
330
47
102
}
330
47
100
AcDbScale
 70
     0
300
1/2" = 1'-0"
140
0.5
141
12.0
290
     0
  0
SCALE
  5
63
102
{ACAD_REACTORS
330
47
102
}
330
47
100
AcDbScale
 70
     0
300
3/4" = 1'-0"
140
0.75
141
12.0
290
     0
  0
SCALE
  5
64
102
{ACAD_REACTORS
330
47
102
}
330
47
100
AcDbScale
 70
     0
300
1" = 1'-0"
140
1.0
141
12.0
290
     0
  0
SCALE
  5
65
102
{ACAD_REACTORS
330
47
102
}
330
47
100
AcDbScale
 70
     0
300
1-1/2" = 1'-0"
140
1.5
141
12.0
290
     0
  0
SCALE
  5
66
102
{ACAD_REACTORS
330
47
102
}
330
47
100
AcDbScale
 70
     0
300
3" = 1'-0"
140
3.0
141
12.0
290
     0
  0
SCALE
  5
67
102
{ACAD_REACTORS
330
47
102
}
330
47
100
AcDbScale
 70
     0
300
6" = 1'-0"
140
6.0
141
12.0
290
     0
  0
SCALE
  5
68
102
{ACAD_REACTORS
330
47
102
}
330
47
100
AcDbScale
 70
     0
300
1'-0" = 1'-0"
140
12.0
141
12.0
290
     0
  0
ENDSEC
  0
EOF
