  0
SECTION
  2
HEADER
  9
$ACADVER
  1
AC1015
  9
$ACADMAINTVER
 70
     6
  9
$DWGCODEPAGE
  3
ANSI_1250
  9
$INSBASE
 10
0.0
 20
0.0
 30
0.0
  9
$EXTMIN
 10
0.0
 20
0.0
 30
0.0
  9
$EXTMAX
 10
20000.0
 20
10000.0
 30
0.0
  9
$LIMMIN
 10
0.0
 20
0.0
  9
$LIMMAX
 10
20000.0
 20
10000.0
  9
$ORTHOMODE
 70
     0
  9
$REGENMODE
 70
     1
  9
$FILLMODE
 70
     1
  9
$QTEXTMODE
 70
     0
  9
$MIRRTEXT
 70
     1
  9
$LTSCALE
 40
1.0
  9
$ATTMODE
 70
     1
  9
$TEXTSIZE
 40
2.0
  9
$TRACEWID
 40
1.0
  9
$TEXTSTYLE
  7
Standard
  9
$CLAYER
  8
0
  9
$CELTYPE
  6
ByLayer
  9
$CECOLOR
 62
   256
  9
$CELTSCALE
 40
1.0
  9
$DISPSILH
 70
     0
  9
$DIMSCALE
 40
1.0
  9
$DIMASZ
 40
2.0
  9
$DIMEXO
 40
1.0
  9
$DIMDLI
 40
3.75
  9
$DIMRND
 40
0.0
  9
$DIMDLE
 40
0.0
  9
$DIMEXE
 40
1.0
  9
$DIMTP
 40
0.0
  9
$DIMTM
 40
0.0
  9
$DIMTXT
 40
2.0
  9
$DIMCEN
 40
2.5
  9
$DIMTSZ
 40
0.0
  9
$DIMTOL
 70
     0
  9
$DIMLIM
 70
     0
  9
$DIMTIH
 70
     1
  9
$DIMTOH
 70
     1
  9
$DIMSE1
 70
     0
  9
$DIMSE2
 70
     0
  9
$DIMTAD
 70
     1
  9
$DIMZIN
 70
     0
  9
$DIMBLK
  1

  9
$DIMASO
 70
     1
  9
$DIMSHO
 70
     1
  9
$DIMPOST
  1

  9
$DIMAPOST
  1

  9
$DIMALT
 70
     0
  9
$DIMALTD
 70
     3
  9
$DIMALTF
 40
0.0393700787
  9
$DIMLFAC
 40
1.0
  9
$DIMTOFL
 70
     1
  9
$DIMTVP
 40
0.0
  9
$DIMTIX
 70
     0
  9
$DIMSOXD
 70
     0
  9
$DIMSAH
 70
     0
  9
$DIMBLK1
  1

  9
$DIMBLK2
  1

  9
$DIMSTYLE
  2
ISO-25
  9
$DIMCLRD
 70
     0
  9
$DIMCLRE
 70
     0
  9
$DIMCLRT
 70
     0
  9
$DIMTFAC
 40
1.0
  9
$DIMGAP
 40
1.524
  9
$DIMJUST
 70
     0
  9
$DIMSD1
 70
     0
  9
$DIMSD2
 70
     0
  9
$DIMTOLJ
 70
     0
  9
$DIMTZIN
 70
     0
  9
$DIMALTZ
 70
     0
  9
$DIMALTTZ
 70
     0
  9
$DIMUPT
 70
     0
  9
$DIMDEC
 70
     2
  9
$DIMTDEC
 70
     0
  9
$DIMALTU
 70
     2
  9
$DIMALTTD
 70
     3
  9
$DIMTXSTY
  7
Standard
  9
$DIMAUNIT
 70
     0
  9
$DIMADEC
 70
     2
  9
$DIMALTRND
 40
0.0
  9
$DIMAZIN
 70
     0
  9
$DIMDSEP
 70
    44
  9
$DIMATFIT
 70
     3
  9
$DIMFRAC
 70
     0
  9
$DIMLDRBLK
  1

  9
$DIMLUNIT
 70
     2
  9
$DIMLWD
 70
    -2
  9
$DIMLWE
 70
    -2
  9
$DIMTMOVE
 70
     0
  9
$LUNITS
 70
     2
  9
$LUPREC
 70
     3
  9
$SKETCHINC
 40
1.0
  9
$FILLETRAD
 40
10.0
  9
$AUNITS
 70
     0
  9
$AUPREC
 70
     2
  9
$MENU
  1
.
  9
$ELEVATION
 40
0.0
  9
$PELEVATION
 40
0.0
  9
$THICKNESS
 40
0.0
  9
$LIMCHECK
 70
     0
  9
$CHAMFERA
 40
0.0
  9
$CHAMFERB
 40
0.0
  9
$CHAMFERC
 40
0.0
  9
$CHAMFERD
 40
0.0
  9
$SKPOLY
 70
     0
  9
$TDCREATE
 40
2460320.390260938
  9
$TDUCREATE
 40
2460320.348594271
  9
$TDUPDATE
 40
2460320.3902614
  9
$TDUUPDATE
 40
2460320.348594734
  9
$TDINDWG
 40
0.0000000116
  9
$TDUSRTIMER
 40
0.0000000116
  9
$USRTIMER
 70
     1
  9
$ANGBASE
 50
0.0
  9
$ANGDIR
 70
     0
  9
$PDMODE
 70
     0
  9
$PDSIZE
 40
-1.0
  9
$PLINEWID
 40
0.0
  9
$SPLFRAME
 70
     0
  9
$SPLINETYPE
 70
     6
  9
$SPLINESEGS
 70
     8
  9
$HANDSEED
  5
169
  9
$SURFTAB1
 70
     6
  9
$SURFTAB2
 70
     6
  9
$SURFTYPE
 70
     6
  9
$SURFU
 70
     6
  9
$SURFV
 70
     6
  9
$UCSBASE
  2

  9
$UCSNAME
  2

  9
$UCSORG
 10
0.0
 20
0.0
 30
0.0
  9
$UCSXDIR
 10
1.0
 20
0.0
 30
0.0
  9
$UCSYDIR
 10
0.0
 20
1.0
 30
0.0
  9
$UCSORTHOREF
  2

  9
$UCSORTHOVIEW
 70
     0
  9
$UCSORGTOP
 10
0.0
 20
0.0
 30
0.0
  9
$UCSORGBOTTOM
 10
0.0
 20
0.0
 30
0.0
  9
$UCSORGLEFT
 10
0.0
 20
0.0
 30
0.0
  9
$UCSORGRIGHT
 10
0.0
 20
0.0
 30
0.0
  9
$UCSORGFRONT
 10
0.0
 20
0.0
 30
0.0
  9
$UCSORGBACK
 10
0.0
 20
0.0
 30
0.0
  9
$PUCSBASE
  2

  9
$PUCSNAME
  2

  9
$PUCSORG
 10
0.0
 20
0.0
 30
0.0
  9
$PUCSXDIR
 10
1.0
 20
0.0
 30
0.0
  9
$PUCSYDIR
 10
0.0
 20
1.0
 30
0.0
  9
$PUCSORTHOREF
  2

  9
$PUCSORTHOVIEW
 70
     0
  9
$PUCSORGTOP
 10
0.0
 20
0.0
 30
0.0
  9
$PUCSORGBOTTOM
 10
0.0
 20
0.0
 30
0.0
  9
$PUCSORGLEFT
 10
0.0
 20
0.0
 30
0.0
  9
$PUCSORGRIGHT
 10
0.0
 20
0.0
 30
0.0
  9
$PUCSORGFRONT
 10
0.0
 20
0.0
 30
0.0
  9
$PUCSORGBACK
 10
0.0
 20
0.0
 30
0.0
  9
$USERI1
 70
     0
  9
$USERI2
 70
     0
  9
$USERI3
 70
     0
  9
$USERI4
 70
     0
  9
$USERI5
 70
     0
  9
$USERR1
 40
0.0
  9
$USERR2
 40
0.0
  9
$USERR3
 40
0.0
  9
$USERR4
 40
0.0
  9
$USERR5
 40
0.0
  9
$WORLDVIEW
 70
     1
  9
$SHADEDGE
 70
     3
  9
$SHADEDIF
 70
    70
  9
$TILEMODE
 70
     1
  9
$MAXACTVP
 70
    64
  9
$PINSBASE
 10
0.0
 20
0.0
 30
0.0
  9
$PLIMCHECK
 70
     0
  9
$PEXTMIN
 10
1.0000000000E+20
 20
1.0000000000E+20
 30
1.0000000000E+20
  9
$PEXTMAX
 10
-1.0000000000E+20
 20
-1.0000000000E+20
 30
-1.0000000000E+20
  9
$PLIMMIN
 10
0.0
 20
0.0
  9
$PLIMMAX
 10
420.0
 20
297.0
  9
$UNITMODE
 70
     0
  9
$VISRETAIN
 70
     1
  9
$PLINEGEN
 70
     0
  9
$PSLTSCALE
 70
     1
  9
$TREEDEPTH
 70
  3020
  9
$CMLSTYLE
  2
Standard
  9
$CMLJUST
 70
     0
  9
$CMLSCALE
 40
20.0
  9
$PROXYGRAPHICS
 70
     1
  9
$MEASUREMENT
 70
     1
  9
$CELWEIGHT
370
    -1
  9
$ENDCAPS
280
     0
  9
$JOINSTYLE
280
     0
  9
$LWDISPLAY
290
     1
  9
$INSUNITS
 70
     4
  9
$HYPERLINKBASE
  1

  9
$STYLESHEET
  1

  9
$XEDIT
290
     1
  9
$CEPSNTYPE
380
     0
  9
$PSTYLEMODE
290
     1
  9
$FINGERPRINTGUID
  2
{cc16ade2-8e25-4250-9484-b790fd42ddc2}
  9
$VERSIONGUID
  2
{FAEB1C32-E019-11D5-929B-00C0DF256EC4}
  9
$EXTNAMES
290
     1
  9
$PSVPSCALE
 40
0.0
  9
$OLESTARTUP
290
     0
  0
ENDSEC
  0
SECTION
  2
CLASSES
  0
CLASS
  1
ACDBDICTIONARYWDFLT
  2
AcDbDictionaryWithDefault
  3
ObjectDBX Classes
 90
        0
280
     0
281
     0
  0
CLASS
  1
VISUALSTYLE
  2
AcDbVisualStyle
  3
ObjectDBX Classes
 90
     4095
280
     0
281
     0
  0
CLASS
  1
MATERIAL
  2
AcDbMaterial
  3
ObjectDBX Classes
 90
     1153
280
     0
281
     0
  0
CLASS
  1
SCALE
  2
AcDbScale
  3
ObjectDBX Classes
 90
     1153
280
     0
281
     0
  0
CLASS
  1
TABLESTYLE
  2
AcDbTableStyle
  3
ObjectDBX Classes
 90
     4095
280
     0
281
     0
  0
CLASS
  1
MLEADERSTYLE
  2
AcDbMLeaderStyle
  3
ACDB_MLEADERSTYLE_CLASS
 90
     4095
280
     0
281
     0
  0
CLASS
  1
SUN
  2
AcDbSun
  3
SCENEOE
 90
     1153
280
     0
281
     0
  0
CLASS
  1
ACDBPLACEHOLDER
  2
AcDbPlaceHolder
  3
ObjectDBX Classes
 90
        0
280
     0
281
     0
  0
CLASS
  1
LAYOUT
  2
AcDbLayout
  3
ObjectDBX Classes
 90
        0
280
     0
281
     0
  0
ENDSEC
  0
SECTION
  2
TABLES
  0
TABLE
  2
VPORT
  5
8
330
0
100
AcDbSymbolTable
 70
     1
  0
VPORT
  5
29
330
8
100
AcDbSymbolTableRecord
100
AcDbViewportTableRecord
  2
*Active
 70
     0
 10
0.0
 20
0.0
 11
1.0
 21
1.0
 12
10000.0
 22
5000.0
 13
0.0
 23
0.0
 14
10.0
 24
10.0
 15
10.0
 25
10.0
 16
0.0
 26
0.0
 36
1.0
 17
0.0
 27
0.0
 37
0.0
 40
10000.0
 41
2.0
 42
50.0
 43
0.0
 44
0.0
 50
0.0
 51
0.0
 71
     0
 72
  2000
 73
     1
 74
     3
 75
     0
 76
     0
 77
     0
 78
     0
281
     0
 65
     1
110
0.0
120
0.0
130
0.0
111
1.0
121
0.0
131
0.0
112
0.0
122
1.0
132
0.0
 79
     0
146
0.0
  0
ENDTAB
  0
TABLE
  2
LTYPE
  5
5
330
0
100
AcDbSymbolTable
 70
     6
  0
LTYPE
  5
14
330
5
100
AcDbSymbolTableRecord
100
AcDbLinetypeTableRecord
  2
ByBlock
 70
     0
  3

 72
    65
 73
     0
 40
0.0
  0
LTYPE
  5
15
330
5
100
AcDbSymbolTableRecord
100
AcDbLinetypeTableRecord
  2
ByLayer
 70
     0
  3

 72
    65
 73
     0
 40
0.0
  0
LTYPE
  5
16
330
5
100
AcDbSymbolTableRecord
100
AcDbLinetypeTableRecord
  2
Continuous
 70
     0
  3
Solid line
 72
    65
 73
     0
 40
0.0
  0
LTYPE
  5
6E
330
5
100
AcDbSymbolTableRecord
100
AcDbLinetypeTableRecord
  2
HIDDEN
 70
     0
  3
Hidden __ __ __ __ __ __ __ __ __ __ __ __ __ __
 72
    65
 73
     2
 40
1.905
 49
1.27
 74
     0
 49
-0.635
 74
     0
  0
LTYPE
  5
6F
330
5
100
AcDbSymbolTableRecord
100
AcDbLinetypeTableRecord
  2
PHANTOM
 70
     0
  3
Phantom ______  __  __  ______  __  __  ______
 72
    65
 73
     6
 40
12.7
 49
6.35
 74
     0
 49
-1.27
 74
     0
 49
1.27
 74
     0
 49
-1.27
 74
     0
 49
1.27
 74
     0
 49
-1.27
 74
     0
  0
LTYPE
  5
70
330
5
100
AcDbSymbolTableRecord
100
AcDbLinetypeTableRecord
  2
CENTER
 70
     0
  3
Center ____ _ ____ _ ____ _ ____ _ ____ _ ____
 72
    65
 73
     4
 40
10.16
 49
6.35
 74
     0
 49
-1.27
 74
     0
 49
1.27
 74
     0
 49
-1.27
 74
     0
  0
LTYPE
  5
71
330
5
100
AcDbSymbolTableRecord
100
AcDbLinetypeTableRecord
  2
CENTERX2
 70
     0
  3
Center (2x) ________  __  ________  __  _____
 72
    65
 73
     4
 40
20.32
 49
12.7
 74
     0
 49
-2.54
 74
     0
 49
2.54
 74
     0
 49
-2.54
 74
     0
  0
LTYPE
  5
72
330
5
100
AcDbSymbolTableRecord
100
AcDbLinetypeTableRecord
  2
DOT2
 70
     0
  3
Dot (.5x) ........................................
 72
    65
 73
     2
 40
0.635
 49
0.0
 74
     0
 49
-0.635
 74
     0
  0
ENDTAB
  0
TABLE
  2
LAYER
  5
2
330
0
100
AcDbSymbolTable
 70
    13
  0
LAYER
  5
10
330
2
100
AcDbSymbolTableRecord
100
AcDbLayerTableRecord
  2
0
 70
     0
 62
     7
  6
Continuous
370
    -3
390
F
  0
LAYER
  5
73
330
2
100
AcDbSymbolTableRecord
100
AcDbLayerTableRecord
  2
FORMAT
 70
     0
 62
     7
  6
Continuous
370
    -3
390
F
  0
LAYER
  5
74
330
2
100
AcDbSymbolTableRecord
100
AcDbLayerTableRecord
  2
OSA
 70
     0
 62
     7
  6
CENTER
370
    -3
390
F
  0
LAYER
  5
75
330
2
100
AcDbSymbolTableRecord
100
AcDbLayerTableRecord
  2
0_35
 70
     0
 62
     7
  6
Continuous
370
    35
390
F
  0
LAYER
  5
76
330
2
100
AcDbSymbolTableRecord
100
AcDbLayerTableRecord
  2
0_5
 70
     0
 62
     7
  6
Continuous
370
    50
390
F
  0
LAYER
  5
77
330
2
100
AcDbSymbolTableRecord
100
AcDbLayerTableRecord
  2
0_25
 70
     0
 62
     7
  6
Continuous
370
    25
390
F
  0
LAYER
  5
78
330
2
100
AcDbSymbolTableRecord
100
AcDbLayerTableRecord
  2
0_18
 70
     0
 62
     7
  6
Continuous
370
    -3
390
F
  0
LAYER
  5
79
330
2
100
AcDbSymbolTableRecord
100
AcDbLayerTableRecord
  2
SLD-0
 70
     0
 62
   179
  6
Continuous
370
    -3
390
F
  0
LAYER
  5
7A
330
2
100
AcDbSymbolTableRecord
100
AcDbLayerTableRecord
  2
KOTY
 70
     0
 62
     7
  6
Continuous
370
    -3
390
F
  0
LAYER
  5
7B
330
2
100
AcDbSymbolTableRecord
100
AcDbLayerTableRecord
  2
SILNA
 70
     0
 62
   179
  6
Continuous
370
    -3
390
F
  0
LAYER
  5
7C
330
2
100
AcDbSymbolTableRecord
100
AcDbLayerTableRecord
  2
0_18_1
 70
     0
 62
   179
  6
Continuous
370
    -3
390
F
  0
LAYER
  5
7D
330
2
100
AcDbSymbolTableRecord
100
AcDbLayerTableRecord
  2
0_35_1
 70
     0
 62
   179
  6
Continuous
370
    35
390
F
  0
LAYER
  5
7E
330
2
100
AcDbSymbolTableRecord
100
AcDbLayerTableRecord
  2
0_5_1
 70
     0
 62
   179
  6
Continuous
370
    50
390
F
  0
ENDTAB
  0
TABLE
  2
STYLE
  5
3
330
0
100
AcDbSymbolTable
 70
     1
  0
STYLE
  5
11
330
3
100
AcDbSymbolTableRecord
100
AcDbTextStyleTableRecord
  2
Standard
 70
     0
 40
0.0
 41
1.0
 50
0.0
 71
     0
 42
2.0
  3
txt
  4

  0
ENDTAB
  0
TABLE
  2
VIEW
  5
6
330
0
100
AcDbSymbolTable
 70
     0
  0
ENDTAB
  0
TABLE
  2
UCS
  5
7
330
0
100
AcDbSymbolTable
 70
     0
  0
ENDTAB
  0
TABLE
  2
APPID
  5
9
330
0
100
AcDbSymbolTable
 70
     1
  0
APPID
  5
12
330
9
100
AcDbSymbolTableRecord
100
AcDbRegAppTableRecord
  2
ACAD
 70
     0
  0
ENDTAB
  0
TABLE
  2
DIMSTYLE
  5
A
330
0
100
AcDbSymbolTable
 70
     1
100
AcDbDimStyleTable
  0
DIMSTYLE
105
27
330
A
100
AcDbSymbolTableRecord
100
AcDbDimStyleTableRecord
  2
ISO-25
 70
     0
 41
2.5
 42
0.625
 43
3.75
 44
1.25
 73
     0
 74
     0
 77
     1
 78
     8
140
2.5
141
2.5
143
0.0393700787
147
0.625
171
     3
172
     1
178
     0
271
     2
272
     2
274
     3
278
    44
283
     0
284
     8
340
11
  0
ENDTAB
  0
TABLE
  2
BLOCK_RECORD
  5
1
330
0
100
AcDbSymbolTable
 70
     1
  0
BLOCK_RECORD
  5
1F
330
1
100
AcDbSymbolTableRecord
100
AcDbBlockTableRecord
  2
*Model_Space
340
22
  0
BLOCK_RECORD
  5
1B
330
1
100
AcDbSymbolTableRecord
100
AcDbBlockTableRecord
  2
*Paper_Space
340
1E
  0
BLOCK_RECORD
  5
23
330
1
100
AcDbSymbolTableRecord
100
AcDbBlockTableRecord
  2
*Paper_Space0
340
26
  0
ENDTAB
  0
ENDSEC
  0
SECTION
  2
BLOCKS
  0
BLOCK
  5
20
330
1F
100
AcDbEntity
  8
0
100
AcDbBlockBegin
  2
*Model_Space
 70
     0
 10
0.0
 20
0.0
 30
0.0
  3
*Model_Space
  1

  0
ENDBLK
  5
21
330
1F
100
AcDbEntity
  8
0
100
AcDbBlockEnd
  0
BLOCK
  5
1C
330
1B
100
AcDbEntity
 67
     1
  8
0
100
AcDbBlockBegin
  2
*Paper_Space
 70
     0
 10
0.0
 20
0.0
 30
0.0
  3
*Paper_Space
  1

  0
ENDBLK
  5
1D
330
1B
100
AcDbEntity
 67
     1
  8
0
100
AcDbBlockEnd
  0
BLOCK
  5
24
330
23
100
AcDbEntity
  8
0
100
AcDbBlockBegin
  2
*Paper_Space0
 70
     0
 10
0.0
 20
0.0
 30
0.0
  3
*Paper_Space0
  1

  0
ENDBLK
  5
25
330
23
100
AcDbEntity
  8
0
100
AcDbBlockEnd
  0
ENDSEC
  0
SECTION
  2
ENTITIES
  0
LINE
  5
7F
330
1F
100
AcDbEntity
  8
0
  6
Continuous
 62
     7
370
    25
100
AcDbLine
 10
6249.7688220593
 20
7414.9152264466
 30
0.0
 11
6249.5188220593
 21
7414.8839764466
 31
0.0
  0
LINE
  5
80
330
1F
100
AcDbEntity
  8
0
  6
Continuous
 62
     7
370
    25
100
AcDbLine
 10
6298.5188220593
 20
7414.8839764466
 30
0.0
 11
6298.2688220593
 21
7414.9152264466
 31
0.0
  0
LINE
  5
81
330
1F
100
AcDbEntity
  8
0
  6
Continuous
 62
     7
370
    25
100
AcDbLine
 10
6298.2688220593
 20
7418.4464764466
 30
0.0
 11
6249.7688220593
 21
7418.4464764466
 31
0.0
  0
LINE
  5
82
330
1F
100
AcDbEntity
  8
0
  6
Continuous
 62
     7
370
    25
100
AcDbLine
 10
6290.0188220593
 20
7249.6964764466
 30
0.0
 11
6290.0188220593
 21
7392.6964764466
 31
0.0
  0
LINE
  5
83
330
1F
100
AcDbEntity
  8
0
  6
Continuous
 62
     7
370
    25
100
AcDbLine
 10
6258.0188220593
 20
7392.6964764466
 30
0.0
 11
6258.0188220593
 21
7249.6964764466
 31
0.0
  0
LINE
  5
84
330
1F
100
AcDbEntity
  8
0
  6
Continuous
 62
     7
370
    25
100
AcDbLine
 10
6274.0188220593
 20
7408.6964764466
 30
0.0
 11
6274.0188220593
 21
7409.3464764466
 31
0.0
  0
LINE
  5
85
330
1F
100
AcDbEntity
  8
0
  6
Continuous
 62
     7
370
    25
100
AcDbLine
 10
6274.0188220593
 20
7409.426054427
 30
0.0
 11
6274.0188220593
 21
7408.6964764466
 31
0.0
  0
ARC
  5
86
330
1F
100
AcDbEntity
  8
0
  6
Continuous
 62
     7
370
    25
100
AcDbCircle
 10
6274.0188220593
 20
7392.6964764466
 30
0.0
 40
19.62500000000091
100
AcDbArc
 50
324.6157125037
 51
0.0
  0
ARC
  5
87
330
1F
100
AcDbEntity
  8
0
  6
Continuous
 62
     7
370
    25
100
AcDbCircle
 10
6274.0188220593
 20
7392.6964764466
 30
0.0
 40
19.62500000000091
100
AcDbArc
 50
0.0
 51
215.3842874963
  0
ARC
  5
88
330
1F
100
AcDbEntity
  8
0
  6
Continuous
 62
     7
370
    25
100
AcDbCircle
 10
6274.0188220593
 20
7392.6964764466
 30
0.0
 40
16.65000000000055
100
AcDbArc
 50
0.0
 51
196.0623942685
  0
LWPOLYLINE
  5
89
330
1F
100
AcDbEntity
  8
0
  6
Continuous
 62
     7
370
    25
100
AcDbPolyline
 90
        3
 70
   128
 43
0.0
 10
6290.0188220593
 20
7388.0896879774
 10
6290.4913891378
 20
7390.2722170038
 10
6290.6688220593
 20
7392.6964764466
  0
LINE
  5
8A
330
1F
100
AcDbEntity
  8
0
  6
Continuous
 62
     7
370
    25
100
AcDbLine
 10
6298.2688220593
 20
7392.6964764466
 30
0.0
 11
6298.2688220593
 21
7418.4464764466
 31
0.0
  0
LINE
  5
8B
330
1F
100
AcDbEntity
  8
0
  6
Continuous
 62
     7
370
    25
100
AcDbLine
 10
6298.2688220593
 20
7382.9464764466
 30
0.0
 11
6298.2688220593
 21
7392.6964764466
 31
0.0
  0
LINE
  5
8C
330
1F
100
AcDbEntity
  8
0
  6
Continuous
 62
     7
370
    25
100
AcDbLine
 10
6249.7688220593
 20
7392.6964764466
 30
0.0
 11
6249.7688220593
 21
7418.4464764466
 31
0.0
  0
LINE
  5
8D
330
1F
100
AcDbEntity
  8
0
  6
Continuous
 62
     7
370
    25
100
AcDbLine
 10
6249.7688220593
 20
7382.9464764466
 30
0.0
 11
6249.7688220593
 21
7392.6964764466
 31
0.0
  0
ARC
  5
8E
330
1F
100
AcDbEntity
  8
0
  6
Continuous
 62
     7
370
    25
100
AcDbCircle
 10
6274.0188220593
 20
7249.6964764466
 30
0.0
 40
16.0
100
AcDbArc
 50
180.0
 51
270.0
  0
ARC
  5
8F
330
1F
100
AcDbEntity
  8
0
  6
Continuous
 62
     7
370
    25
100
AcDbCircle
 10
6274.0188220593
 20
7249.6964764466
 30
0.0
 40
16.0
100
AcDbArc
 50
270.0
 51
0.0
  0
ARC
  5
90
330
1F
100
AcDbEntity
  8
0
  6
Continuous
 62
     7
370
    25
100
AcDbCircle
 10
6274.0188220593
 20
7392.6964764466
 30
0.0
 40
16.0
100
AcDbArc
 50
90.0
 51
180.0
  0
ARC
  5
91
330
1F
100
AcDbEntity
  8
0
  6
Continuous
 62
     7
370
    25
100
AcDbCircle
 10
6274.0188220593
 20
7392.6964764466
 30
0.0
 40
16.0
100
AcDbArc
 50
0.0
 51
90.0
  0
ARC
  5
92
330
1F
100
AcDbEntity
  8
0
  6
Continuous
 62
     7
370
    25
100
AcDbCircle
 10
6274.0188220593
 20
7249.6964764466
 30
0.0
 40
18.74999999999975
100
AcDbArc
 50
148.5760935142
 51
180.0
  0
ARC
  5
93
330
1F
100
AcDbEntity
  8
0
  6
Continuous
 62
     7
370
    25
100
AcDbCircle
 10
6274.0188220593
 20
7249.6964764466
 30
0.0
 40
18.75000000000023
100
AcDbArc
 50
180.0
 51
31.4239064858
  0
LINE
  5
94
330
1F
100
AcDbEntity
  8
0
  6
Continuous
 62
     7
370
    25
100
AcDbLine
 10
6206.5188220593
 20
7394.3170721673
 30
0.0
 11
6211.5188220593
 21
7394.3170721673
 31
0.0
  0
LINE
  5
95
330
1F
100
AcDbEntity
  8
0
  6
Continuous
 62
     7
370
    25
100
AcDbLine
 10
6211.5188220593
 20
7394.3170721673
 30
0.0
 11
6211.5188220593
 21
7393.4464764466
 31
0.0
  0
SPLINE
  5
96
330
1F
100
AcDbEntity
  8
0
  6
Continuous
 62
     7
370
    25
100
AcDbSpline
210
0.0
220
0.0
230
1.0
 70
    24
 71
     3
 72
    13
 73
     9
 74
     0
 42
0.00000001
 43
0.00000001
 40
0.0
 40
0.0
 40
0.0
 40
0.0
 40
0.2115145802988739
 40
0.426198048008781
 40
0.6408779755360829
 40
0.7752438174664245
 40
0.9899120409049855
 40
1.0
 40
1.0
 40
1.0
 40
1.0
 10
6206.518822059308
 20
7393.446476446603
 30
0.0
 10
6206.572541813168
 20
7393.446476446603
 30
0.0
 10
6206.680786144138
 20
7393.446476446603
 30
0.0
 10
6207.530096646517
 20
7393.446476446603
 30
0.0
 10
6208.638342343901
 20
7393.446476446603
 30
0.0
 10
6209.964476187475
 20
7393.446476446603
 30
0.0
 10
6210.906699349075
 20
7393.446476446603
 30
0.0
 10
6211.492527731422
 20
7393.446476446603
 30
0.0
 10
6211.518822059307
 20
7393.446476446603
 30
0.0
  0
LINE
  5
97
330
1F
100
AcDbEntity
  8
0
  6
Continuous
 62
     7
370
    25
100
AcDbLine
 10
6206.5188220593
 20
7393.4464764466
 30
0.0
 11
6206.5188220593
 21
7394.3170721673
 31
0.0
  0
LINE
  5
98
330
1F
100
AcDbEntity
  8
0
  6
Continuous
 62
     7
370
    25
100
AcDbLine
 10
6336.5188220593
 20
7394.3170721673
 30
0.0
 11
6341.5188220593
 21
7394.3170721673
 31
0.0
  0
LINE
  5
99
330
1F
100
AcDbEntity
  8
0
  6
Continuous
 62
     7
370
    25
100
AcDbLine
 10
6341.5188220593
 20
7394.3170721673
 30
0.0
 11
6341.5188220593
 21
7393.4464764466
 31
0.0
  0
LINE
  5
9A
330
1F
100
AcDbEntity
  8
0
  6
Continuous
 62
     7
370
    25
100
AcDbLine
 10
6336.5188220593
 20
7393.4464764466
 30
0.0
 11
6336.5188220593
 21
7394.3170721673
 31
0.0
  0
SPLINE
  5
9B
330
1F
100
AcDbEntity
  8
0
  6
Continuous
 62
     7
370
    25
100
AcDbSpline
210
0.0
220
0.0
230
1.0
 70
    24
 71
     3
 72
    16
 73
    12
 74
     0
 42
0.00000001
 43
0.00000001
 40
0.0
 40
0.0
 40
0.0
 40
0.0
 40
0.090774391011724
 40
0.183453295624181
 40
0.397743250520986
 40
0.4645205230213436
 40
0.5320431957029267
 40
0.6380393558605432
 40
0.7471094593736584
 40
0.961411243114475
 40
1.0
 40
1.0
 40
1.0
 40
1.0
 10
6336.518822059307
 20
7393.446476446603
 30
0.0
 10
6336.756119884039
 20
7393.446476446603
 30
0.0
 10
6337.235694216689
 20
7393.446476446603
 30
0.0
 10
6338.252984535275
 20
7393.446476446603
 30
0.0
 10
6339.149977169132
 20
7393.446476446603
 30
0.0
 10
6339.859686542917
 20
7393.446476446603
 30
0.0
 10
6340.305516857388
 20
7393.446476446603
 30
0.0
 10
6340.755740161744
 20
7393.446476446603
 30
0.0
 10
6341.278100999636
 20
7393.446476446603
 30
0.0
 10
6341.504341572177
 20
7393.446476446603
 30
0.0
 10
6341.516904996923
 20
7393.446476446603
 30
0.0
 10
6341.518822059307
 20
7393.446476446603
 30
0.0
  0
LINE
  5
9C
330
1F
100
AcDbEntity
  8
0
  6
Continuous
 62
     7
370
    25
100
AcDbLine
 10
6336.5188220593
 20
7394.3170721673
 30
0.0
 11
6336.5188220593
 21
7417.0866933967
 31
0.0
  0
ARC
  5
9D
330
1F
100
AcDbEntity
  8
0
  6
Continuous
 62
     7
370
    25
100
AcDbCircle
 10
6336.5541650064
 20
7412.1220326834
 30
0.0
 40
4.964786513279114
100
AcDbArc
 50
0.4137678646
 51
90.4078763113
  0
LINE
  5
9E
330
1F
100
AcDbEntity
  8
0
  6
Continuous
 62
     7
370
    25
100
AcDbLine
 10
6341.5188220593
 20
7412.1578861315
 30
0.0
 11
6341.5188220593
 21
7394.3170721673
 31
0.0
  0
LINE
  5
9F
330
1F
100
AcDbEntity
  8
0
  6
Continuous
 62
     7
370
    25
100
AcDbLine
 10
6298.5188220593
 20
7394.3170721673
 30
0.0
 11
6336.5188220593
 21
7394.3170721673
 31
0.0
  0
LINE
  5
A0
330
1F
100
AcDbEntity
  8
0
  6
Continuous
 62
     7
370
    25
100
AcDbLine
 10
6298.5188220593
 20
7394.3170721673
 30
0.0
 11
6298.5188220593
 21
7393.4464764466
 31
0.0
  0
LINE
  5
A1
330
1F
100
AcDbEntity
  8
0
  6
Continuous
 62
     7
370
    25
100
AcDbLine
 10
6336.5188220593
 20
7393.4464764466
 30
0.0
 11
6298.5188220593
 21
7393.4464764466
 31
0.0
  0
LINE
  5
A2
330
1F
100
AcDbEntity
  8
0
  6
Continuous
 62
     7
370
    25
100
AcDbLine
 10
6298.5188220593
 20
7417.0866933967
 30
0.0
 11
6336.5188220593
 21
7417.0866933967
 31
0.0
  0
LINE
  5
A3
330
1F
100
AcDbEntity
  8
0
  6
Continuous
 62
     7
370
    25
100
AcDbLine
 10
6298.5188220593
 20
7417.0866933967
 30
0.0
 11
6298.5188220593
 21
7394.3170721673
 31
0.0
  0
LINE
  5
A4
330
1F
100
AcDbEntity
  8
0
  6
Continuous
 62
     7
370
    25
100
AcDbLine
 10
6206.5188220593
 20
7394.3170721673
 30
0.0
 11
6206.5188220593
 21
7412.1578861315
 31
0.0
  0
ARC
  5
A5
330
1F
100
AcDbEntity
  8
0
  6
Continuous
 62
     7
370
    25
100
AcDbCircle
 10
6211.4834791122
 20
7412.1220326834
 30
0.0
 40
4.964786513280043
100
AcDbArc
 50
89.5921236888
 51
179.5862321353
  0
LINE
  5
A6
330
1F
100
AcDbEntity
  8
0
  6
Continuous
 62
     7
370
    25
100
AcDbLine
 10
6211.5188220593
 20
7417.0866933967
 30
0.0
 11
6211.5188220593
 21
7394.3170721673
 31
0.0
  0
LINE
  5
A7
330
1F
100
AcDbEntity
  8
0
  6
Continuous
 62
     7
370
    25
100
AcDbLine
 10
6211.5188220593
 20
7394.3170721673
 30
0.0
 11
6249.5188220593
 21
7394.3170721673
 31
0.0
  0
LINE
  5
A8
330
1F
100
AcDbEntity
  8
0
  6
Continuous
 62
     7
370
    25
100
AcDbLine
 10
6249.5188220593
 20
7394.3170721673
 30
0.0
 11
6249.5188220593
 21
7393.4464764466
 31
0.0
  0
LINE
  5
A9
330
1F
100
AcDbEntity
  8
0
  6
Continuous
 62
     7
370
    25
100
AcDbLine
 10
6249.5188220593
 20
7393.4464764466
 30
0.0
 11
6211.5188220593
 21
7393.4464764466
 31
0.0
  0
LINE
  5
AA
330
1F
100
AcDbEntity
  8
0
  6
Continuous
 62
     7
370
    25
100
AcDbLine
 10
6211.5188220593
 20
7417.0866933967
 30
0.0
 11
6249.5188220593
 21
7417.0866933967
 31
0.0
  0
LINE
  5
AB
330
1F
100
AcDbEntity
  8
0
  6
Continuous
 62
     7
370
    25
100
AcDbLine
 10
6249.5188220593
 20
7417.0866933967
 30
0.0
 11
6249.5188220593
 21
7394.3170721673
 31
0.0
  0
ARC
  5
AC
330
1F
100
AcDbEntity
  8
0
  6
Continuous
 62
     7
370
    25
100
AcDbCircle
 10
6211.5109561222
 20
7415.1883762015
 30
0.0
 40
4.99214029915694
100
AcDbArc
 50
89.9097210497
 51
179.9094356504
  0
LINE
  5
AD
330
1F
100
AcDbEntity
  8
0
  6
Continuous
 62
     7
370
    25
100
AcDbLine
 10
6211.5188220593
 20
7420.1805103036
 30
0.0
 11
6211.5188220593
 21
7417.0866933967
 31
0.0
  0
LINE
  5
AE
330
1F
100
AcDbEntity
  8
0
  6
Continuous
 62
     7
370
    25
100
AcDbLine
 10
6206.5188220593
 20
7412.1578861315
 30
0.0
 11
6206.5188220593
 21
7415.1962670052
 31
0.0
  0
LINE
  5
AF
330
1F
100
AcDbEntity
  8
0
  6
Continuous
 62
     7
370
    25
100
AcDbLine
 10
6336.5188220593
 20
7417.0866933967
 30
0.0
 11
6336.5188220593
 21
7420.1805103036
 31
0.0
  0
ARC
  5
B0
330
1F
100
AcDbEntity
  8
0
  6
Continuous
 62
     7
370
    25
100
AcDbCircle
 10
6336.5266879964
 20
7415.1883762015
 30
0.0
 40
4.992140299159144
100
AcDbArc
 50
0.0905643496
 51
90.0902789503
  0
LINE
  5
B1
330
1F
100
AcDbEntity
  8
0
  6
Continuous
 62
     7
370
    25
100
AcDbLine
 10
6341.5188220593
 20
7415.1962670052
 30
0.0
 11
6341.5188220593
 21
7412.1578861315
 31
0.0
  0
LINE
  5
B2
330
1F
100
AcDbEntity
  8
0
  6
Continuous
 62
     7
370
    25
100
AcDbLine
 10
6281.6181641361
 20
7420.1805103036
 30
0.0
 11
6336.5188220593
 21
7420.1805103036
 31
0.0
  0
LINE
  5
B3
330
1F
100
AcDbEntity
  8
0
  6
Continuous
 62
     7
370
    25
100
AcDbLine
 10
6298.2688220593
 20
7418.372233126
 30
0.0
 11
6298.5188220593
 21
7418.372233126
 31
0.0
  0
SPLINE
  5
B4
330
1F
100
AcDbEntity
  8
0
  6
Continuous
 62
     7
370
    25
100
AcDbSpline
210
0.0
220
0.0
230
1.0
 70
     8
 71
     3
 72
    14
 73
    10
 74
     0
 42
0.00000001
 43
0.00000001
 40
0.0
 40
0.0
 40
0.0
 40
0.0
 40
0.1546337366110961
 40
0.3137591041220508
 40
0.4683909911354935
 40
0.6274907243410751
 40
0.7824551829484947
 40
0.9418536439031161
 40
1.0
 40
1.0
 40
1.0
 40
1.0
 10
6281.618164136093
 20
7420.180510303583
 30
0.0
 10
6282.621133132684
 20
7420.142606855092
 30
0.0
 10
6284.656204267414
 20
7420.065698980378
 30
0.0
 10
6287.337533798364
 20
7419.886380875692
 30
0.0
 10
6289.678196321656
 20
7419.651448107221
 30
0.0
 10
6291.555875240028
 20
7419.357573535386
 30
0.0
 10
6292.945613006311
 20
7418.99834182804
 30
0.0
 10
6293.645550491547
 20
7418.670964103453
 30
0.0
 10
6293.836309596977
 20
7418.459821079859
 30
0.0
 10
6293.887296547729
 20
7418.40338582388
 30
0.0
  0
LINE
  5
B5
330
1F
100
AcDbEntity
  8
0
  6
Continuous
 62
     7
370
    25
100
AcDbLine
 10
6298.5188220593
 20
7418.372233126
 30
0.0
 11
6298.5188220593
 21
7417.0866933967
 31
0.0
  0
LINE
  5
B6
330
1F
100
AcDbEntity
  8
0
  6
Continuous
 62
     7
370
    25
100
AcDbLine
 10
6211.5188220593
 20
7420.1805103036
 30
0.0
 11
6266.4194799825
 21
7420.1805103036
 31
0.0
  0
SPLINE
  5
B7
330
1F
100
AcDbEntity
  8
0
  6
Continuous
 62
     7
370
    25
100
AcDbSpline
210
0.0
220
0.0
230
1.0
 70
     8
 71
     3
 72
    14
 73
    10
 74
     0
 42
0.00000001
 43
0.00000001
 40
0.0
 40
0.0
 40
0.0
 40
0.0
 40
0.1121369724281653
 40
0.2350462883398505
 40
0.3941716256486365
 40
0.5532916487071098
 40
0.7109205077317529
 40
0.8685475607521269
 40
1.0
 40
1.0
 40
1.0
 40
1.0
 10
6254.156890954506
 20
7418.402741704166
 30
0.0
 10
6254.267629659006
 20
7418.510559296687
 30
0.0
 10
6254.499745088064
 20
7418.73655188763
 30
0.0
 10
6255.341008643888
 20
7419.071680765946
 30
0.0
 10
6256.699339772705
 20
7419.398921285162
 30
0.0
 10
6258.666755830328
 20
7419.689433273133
 30
0.0
 10
6261.08016779592
 20
7419.915868283009
 30
0.0
 10
6263.684441205669
 20
7420.079239161402
 30
0.0
 10
6265.564544859383
 20
7420.148854351521
 30
0.0
 10
6266.419479982522
 20
7420.180510303584
 30
0.0
  0
LINE
  5
B8
330
1F
100
AcDbEntity
  8
0
  6
Continuous
 62
     7
370
    25
100
AcDbLine
 10
6249.5188220593
 20
7418.372233126
 30
0.0
 11
6249.7688220593
 21
7418.372233126
 31
0.0
  0
LINE
  5
B9
330
1F
100
AcDbEntity
  8
0
  6
Continuous
 62
     7
370
    25
100
AcDbLine
 10
6249.5188220593
 20
7418.372233126
 30
0.0
 11
6249.5188220593
 21
7417.0866933967
 31
0.0
  0
SPLINE
  5
BA
330
1F
100
AcDbEntity
  8
0
  6
Continuous
 62
     7
370
    25
100
AcDbSpline
210
0.0
220
0.0
230
1.0
 70
     8
 71
     3
 72
    12
 73
     8
 74
     0
 42
0.00000001
 43
0.00000001
 40
0.0
 40
0.0
 40
0.0
 40
0.0
 40
0.2118379158656179
 40
0.4297003887439318
 40
0.6418307304106761
 40
0.8604099491940767
 40
1.0
 40
1.0
 40
1.0
 40
1.0
 10
6266.419479982522
 20
7420.180510303584
 30
0.0
 10
6267.457419345671
 20
7420.23090044081
 30
0.0
 10
6269.562816512252
 20
7420.333113783812
 30
0.0
 10
6272.890667411055
 20
7420.485530162516
 30
0.0
 10
6276.269642115951
 20
7420.453338192266
 30
0.0
 10
6279.195739467179
 20
7420.286720006738
 30
0.0
 10
6280.938827017224
 20
7420.210295417095
 30
0.0
 10
6281.618164136093
 20
7420.180510303583
 30
0.0
  0
LINE
  5
BB
330
1F
100
AcDbEntity
  8
0
  6
Continuous
 62
     7
370
    25
100
AcDbLine
 10
6249.5188220593
 20
7415.3427355234
 30
0.0
 11
6249.7688220593
 21
7415.3427355234
 31
0.0
  0
LINE
  5
BC
330
1F
100
AcDbEntity
  8
0
  6
Continuous
 62
     7
370
    25
100
AcDbLine
 10
6298.2688220593
 20
7415.3427355234
 30
0.0
 11
6298.5188220593
 21
7415.3427355234
 31
0.0
  0
LINE
  5
BD
330
1F
100
AcDbEntity
  8
0
  6
Continuous
 62
     7
370
    25
100
AcDbLine
 10
6211.5188220593
 20
7423.850553789
 30
0.0
 11
6211.5188220593
 21
7420.1805103036
 31
0.0
  0
LINE
  5
BE
330
1F
100
AcDbEntity
  8
0
  6
Continuous
 62
     7
370
    25
100
AcDbLine
 10
6211.5188220593
 20
7423.850553789
 30
0.0
 11
6336.5188220593
 21
7423.850553789
 31
0.0
  0
LINE
  5
BF
330
1F
100
AcDbEntity
  8
0
  6
Continuous
 62
     7
370
    25
100
AcDbLine
 10
6336.5188220593
 20
7420.1805103036
 30
0.0
 11
6336.5188220593
 21
7423.850553789
 31
0.0
  0
LWPOLYLINE
  5
C0
330
1F
100
AcDbEntity
  8
0
  6
Continuous
 62
     7
370
    25
100
AcDbPolyline
 90
        9
 70
   128
 43
0.0
 10
6336.5188220593
 20
7423.850553789
 10
6337.4942736694
 20
7423.804360117
 10
6338.4322392211
 20
7423.6675542978
 10
6339.2966732244
 20
7423.4453937024
 10
6340.0543559652
 20
7423.1464158379
 10
6340.6761701208
 20
7422.7821102559
 10
6341.1382197219
 20
7422.3664770157
 10
6341.4227484613
 20
7421.9154886695
 10
6341.5188220593
 20
7421.4464764466
  0
LINE
  5
C1
330
1F
100
AcDbEntity
  8
0
  6
Continuous
 62
     7
370
    25
100
AcDbLine
 10
6341.5188220593
 20
7421.4464764466
 30
0.0
 11
6341.5188220593
 21
7415.1962670052
 31
0.0
  0
LWPOLYLINE
  5
C2
330
1F
100
AcDbEntity
  8
0
  6
Continuous
 62
     7
370
    25
100
AcDbPolyline
 90
        9
 70
   128
 43
0.0
 10
6206.5188220593
 20
7421.4464764466
 10
6206.6148956573
 20
7421.9154886695
 10
6206.8994243968
 20
7422.3664770157
 10
6207.3614739978
 20
7422.7821102559
 10
6207.9832881534
 20
7423.1464158379
 10
6208.7409708942
 20
7423.4453937024
 10
6209.6054048975
 20
7423.6675542978
 10
6210.5433704492
 20
7423.804360117
 10
6211.5188220593
 20
7423.850553789
  0
LINE
  5
C3
330
1F
100
AcDbEntity
  8
0
  6
Continuous
 62
     7
370
    25
100
AcDbLine
 10
6206.5188220593
 20
7415.1962670052
 30
0.0
 11
6206.5188220593
 21
7421.4464764466
 31
0.0
  0
ARC
  5
C4
330
1F
100
AcDbEntity
  8
0
  6
Continuous
 62
     7
370
    25
100
AcDbCircle
 10
6211.5188220593
 20
7421.4464764466
 30
0.0
 40
5.0
100
AcDbArc
 50
90.0
 51
180.0
  0
LINE
  5
C5
330
1F
100
AcDbEntity
  8
0
  6
Continuous
 62
     7
370
    25
100
AcDbLine
 10
6211.5188220593
 20
7426.4464764466
 30
0.0
 11
6211.5188220593
 21
7423.850553789
 31
0.0
  0
ARC
  5
C6
330
1F
100
AcDbEntity
  8
0
  6
Continuous
 62
     7
370
    25
100
AcDbCircle
 10
6336.5188220593
 20
7421.4464764466
 30
0.0
 40
5.0
100
AcDbArc
 50
0.0
 51
90.0
  0
LINE
  5
C7
330
1F
100
AcDbEntity
  8
0
  6
Continuous
 62
     7
370
    25
100
AcDbLine
 10
6336.5188220593
 20
7423.850553789
 30
0.0
 11
6336.5188220593
 21
7426.4464764466
 31
0.0
  0
LINE
  5
C8
330
1F
100
AcDbEntity
  8
0
  6
Continuous
 62
     7
370
    25
100
AcDbLine
 10
6211.5188220593
 20
7426.4464764466
 30
0.0
 11
6336.5188220593
 21
7426.4464764466
 31
0.0
  0
LINE
  5
C9
330
1F
100
AcDbEntity
  8
0
  6
Continuous
 62
     7
370
    25
100
AcDbLine
 10
6211.5188220593
 20
7393.4464764466
 30
0.0
 11
6211.5188220593
 21
7351.1655474852
 31
0.0
  0
LWPOLYLINE
  5
CA
330
1F
100
AcDbEntity
  8
0
  6
Continuous
 62
     7
370
    25
100
AcDbPolyline
 90
        9
 70
   128
 43
0.0
 10
6206.5188220593
 20
7352.9464764466
 10
6206.6148956573
 20
7352.599034442
 10
6206.8994243968
 20
7352.2649444388
 10
6207.3614739978
 20
7351.9570453285
 10
6207.9832881534
 20
7351.6871695012
 10
6208.7409708942
 20
7351.4656881335
 10
6209.6054048975
 20
7351.3011126303
 10
6210.5433704492
 20
7351.1997675358
 10
6211.5188220593
 20
7351.1655474852
  0
LINE
  5
CB
330
1F
100
AcDbEntity
  8
0
  6
Continuous
 62
     7
370
    25
100
AcDbLine
 10
6206.5188220593
 20
7352.9464764466
 30
0.0
 11
6206.5188220593
 21
7393.4464764466
 31
0.0
  0
SPLINE
  5
CC
330
1F
100
AcDbEntity
  8
0
  6
Continuous
 62
     7
370
    25
100
AcDbSpline
210
0.0
220
0.0
230
1.0
 70
    24
 71
     3
 72
    17
 73
    13
 74
     0
 42
0.00000001
 43
0.00000001
 40
0.0
 40
0.0
 40
0.0
 40
0.0
 40
0.073800421673742
 40
0.1796741195487064
 40
0.2886184627305569
 40
0.394486213347056
 40
0.5034250220701552
 40
0.6092767826552289
 40
0.7181993268222432
 40
0.8240321599908766
 40
0.9329349762958343
 40
1.0
 40
1.0
 40
1.0
 40
1.0
 10
6206.518822059308
 20
7393.446476446603
 30
0.0
 10
6206.525448269569
 20
7393.446476446603
 30
0.0
 10
6206.541580406319
 20
7393.446476446603
 30
0.0
 10
6206.697346452829
 20
7393.446476446603
 30
0.0
 10
6206.998510649954
 20
7393.446476446603
 30
0.0
 10
6207.433643356982
 20
7393.446476446603
 30
0.0
 10
6207.979724919669
 20
7393.446476446603
 30
0.0
 10
6208.631878565938
 20
7393.446476446603
 30
0.0
 10
6209.359671492381
 20
7393.446476446603
 30
0.0
 10
6210.155569596855
 20
7393.446476446603
 30
0.0
 10
6210.883005007828
 20
7393.446476446603
 30
0.0
 10
6211.343368069352
 20
7393.446476446603
 30
0.0
 10
6211.518822059307
 20
7393.446476446603
 30
0.0
  0
LINE
  5
CD
330
1F
100
AcDbEntity
  8
0
  6
Continuous
 62
     7
370
    25
100
AcDbLine
 10
6341.5188220593
 20
7393.4464764466
 30
0.0
 11
6341.5188220593
 21
7352.9464764466
 31
0.0
  0
LWPOLYLINE
  5
CE
330
1F
100
AcDbEntity
  8
0
  6
Continuous
 62
     7
370
    25
100
AcDbPolyline
 90
        9
 70
   128
 43
0.0
 10
6336.5188220593
 20
7351.1655474852
 10
6337.4942736694
 20
7351.1997675358
 10
6338.4322392211
 20
7351.3011126303
 10
6339.2966732244
 20
7351.4656881335
 10
6340.0543559652
 20
7351.6871695012
 10
6340.6761701208
 20
7351.9570453285
 10
6341.1382197219
 20
7352.2649444388
 10
6341.4227484613
 20
7352.599034442
 10
6341.5188220593
 20
7352.9464764466
  0
LINE
  5
CF
330
1F
100
AcDbEntity
  8
0
  6
Continuous
 62
     7
370
    25
100
AcDbLine
 10
6336.5188220593
 20
7351.1655474852
 30
0.0
 11
6336.5188220593
 21
7393.4464764466
 31
0.0
  0
SPLINE
  5
D0
330
1F
100
AcDbEntity
  8
0
  6
Continuous
 62
     7
370
    25
100
AcDbSpline
210
0.0
220
0.0
230
1.0
 70
    24
 71
     3
 72
    17
 73
    13
 74
     0
 42
0.00000001
 43
0.00000001
 40
0.0
 40
0.0
 40
0.0
 40
0.0
 40
0.1058065248962703
 40
0.2146809010189464
 40
0.3204995237049425
 40
0.4293864491961267
 40
0.5352136270879567
 40
0.6441087845820851
 40
0.7499540922688562
 40
0.8588678979266983
 40
0.9290003093104595
 40
1.0
 40
1.0
 40
1.0
 40
1.0
 10
6336.518822059307
 20
7393.446476446603
 30
0.0
 10
6336.795858345004
 20
7393.446476446603
 30
0.0
 10
6337.357963560031
 20
7393.446476446603
 30
0.0
 10
6338.173773010625
 20
7393.446476446603
 30
0.0
 10
6338.949868123977
 20
7393.446476446603
 30
0.0
 10
6339.650303581915
 20
7393.446476446603
 30
0.0
 10
6340.267887600265
 20
7393.446476446603
 30
0.0
 10
6340.773865215851
 20
7393.446476446603
 30
0.0
 10
6341.163722074308
 20
7393.446476446603
 30
0.0
 10
6341.388519056795
 20
7393.446476446603
 30
0.0
 10
6341.500913823367
 20
7393.446476446603
 30
0.0
 10
6341.512828241992
 20
7393.446476446603
 30
0.0
 10
6341.518822059307
 20
7393.446476446603
 30
0.0
  0
LINE
  5
D1
330
1F
100
AcDbEntity
  8
0
  6
Continuous
 62
     7
370
    25
100
AcDbLine
 10
6249.5188220593
 20
7393.4464764466
 30
0.0
 11
6249.5188220593
 21
7382.9464764466
 31
0.0
  0
LINE
  5
D2
330
1F
100
AcDbEntity
  8
0
  6
Continuous
 62
     7
370
    25
100
AcDbLine
 10
6256.6983139836
 20
7382.9464764466
 30
0.0
 11
6249.5188220593
 21
7382.9464764466
 31
0.0
  0
SPLINE
  5
D3
330
1F
100
AcDbEntity
  8
0
  6
Continuous
 62
     7
370
    25
100
AcDbSpline
210
0.0
220
0.0
230
1.0
 70
     8
 71
     3
 72
     9
 73
     5
 74
     0
 42
0.00000001
 43
0.00000001
 40
0.0
 40
0.0
 40
0.0
 40
0.0
 40
0.0017788047366099
 40
1.0
 40
1.0
 40
1.0
 40
1.0
 10
6256.698313983618
 20
7382.946476446603
 30
0.0
 10
6256.698999580695
 20
7382.945289033814
 30
0.0
 10
6257.084425289873
 20
7382.277754950898
 30
0.0
 10
6257.55203957184
 20
7381.663003423458
 30
0.0
 10
6258.018822059308
 20
7381.049345418945
 30
0.0
  0
SPLINE
  5
D4
330
1F
100
AcDbEntity
  8
0
  6
Continuous
 62
     7
370
    25
100
AcDbSpline
210
0.0
220
0.0
230
1.0
 70
     8
 71
     3
 72
     9
 73
     5
 74
     0
 42
0.00000001
 43
0.00000001
 40
0.0
 40
0.0
 40
0.0
 40
0.0
 40
0.3005530192625576
 40
1.0
 40
1.0
 40
1.0
 40
1.0
 10
6290.018822059308
 20
7381.024779264088
 30
0.0
 10
6290.171213890266
 20
7381.202636511391
 30
0.0
 10
6290.678251987341
 20
7381.794403141248
 30
0.0
 10
6291.067248028494
 20
7382.472313848914
 30
0.0
 10
6291.339330134996
 20
7382.946476446603
 30
0.0
  0
LINE
  5
D5
330
1F
100
AcDbEntity
  8
0
  6
Continuous
 62
     7
370
    25
100
AcDbLine
 10
6298.5188220593
 20
7382.9464764466
 30
0.0
 11
6291.339330135
 21
7382.9464764466
 31
0.0
  0
LINE
  5
D6
330
1F
100
AcDbEntity
  8
0
  6
Continuous
 62
     7
370
    25
100
AcDbLine
 10
6298.5188220593
 20
7393.4464764466
 30
0.0
 11
6298.5188220593
 21
7382.9464764466
 31
0.0
  0
ARC
  5
D7
330
1F
100
AcDbEntity
  8
0
  6
Continuous
 62
     7
370
    25
100
AcDbCircle
 10
6336.5188220593
 20
7352.9464764466
 30
0.0
 40
5.0
100
AcDbArc
 50
270.0
 51
0.0
  0
LINE
  5
D8
330
1F
100
AcDbEntity
  8
0
  6
Continuous
 62
     7
370
    25
100
AcDbLine
 10
6336.5188220593
 20
7347.9464764466
 30
0.0
 11
6336.5188220593
 21
7351.1655474852
 31
0.0
  0
LINE
  5
D9
330
1F
100
AcDbEntity
  8
0
  6
Continuous
 62
     7
370
    25
100
AcDbLine
 10
6211.5188220593
 20
7351.1655474852
 30
0.0
 11
6211.5188220593
 21
7347.9464764466
 31
0.0
  0
LINE
  5
DA
330
1F
100
AcDbEntity
  8
0
  6
Continuous
 62
     7
370
    25
100
AcDbLine
 10
6211.5188220593
 20
7347.9464764466
 30
0.0
 11
6258.0188220593
 21
7347.9464764466
 31
0.0
  0
LINE
  5
DB
330
1F
100
AcDbEntity
  8
0
  6
Continuous
 62
     7
370
    25
100
AcDbLine
 10
6290.0188220593
 20
7347.9464764466
 30
0.0
 11
6336.5188220593
 21
7347.9464764466
 31
0.0
  0
ARC
  5
DC
330
1F
100
AcDbEntity
  8
0
  6
Continuous
 62
     7
370
    25
100
AcDbCircle
 10
6211.5188220593
 20
7352.9464764466
 30
0.0
 40
5.0
100
AcDbArc
 50
180.0
 51
270.0
  0
ARC
  5
DD
330
1F
100
AcDbEntity
  8
0
  6
Continuous
 62
     8
370
    25
100
AcDbCircle
 10
6274.0188220593
 20
7392.6964764466
 30
0.0
 40
17.125
100
AcDbArc
 50
0.0
 51
200.8835963435
  0
ARC
  5
DE
330
1F
100
AcDbEntity
  8
0
  6
Continuous
 62
     8
370
    25
100
AcDbCircle
 10
6274.0188220593
 20
7392.6964764466
 30
0.0
 40
17.125
100
AcDbArc
 50
339.1164036565
 51
0.0
  0
ARC
  5
DF
330
1F
100
AcDbEntity
  8
0
  6
Continuous
 62
     8
370
    25
100
AcDbCircle
 10
6274.0188220593
 20
7249.6964764466
 30
0.0
 40
16.75
100
AcDbArc
 50
180.0
 51
17.210553088
  0
ARC
  5
E0
330
1F
100
AcDbEntity
  8
0
  6
Continuous
 62
     8
370
    25
100
AcDbCircle
 10
6274.0188220593
 20
7249.6964764466
 30
0.0
 40
16.75
100
AcDbArc
 50
162.789446912
 51
180.0
  0
LINE
  5
E1
330
1F
100
AcDbEntity
  8
0
  6
Continuous
 62
     8
370
    25
100
AcDbLine
 10
6211.5188220593
 20
7351.1655474852
 30
0.0
 11
6258.0188220593
 21
7351.1655474852
 31
0.0
  0
LINE
  5
E2
330
1F
100
AcDbEntity
  8
0
  6
Continuous
 62
     8
370
    25
100
AcDbLine
 10
6290.0188220593
 20
7351.1655474852
 30
0.0
 11
6336.5188220593
 21
7351.1655474852
 31
0.0
  0
LINE
  5
E3
330
1F
100
AcDbEntity
  8
0
  6
Continuous
 62
     7
370
    25
100
AcDbLine
 10
6608.0336294469
 20
7373.0714764466
 30
0.0
 11
6610.6144003079
 21
7373.0714764466
 31
0.0
  0
LINE
  5
E4
330
1F
100
AcDbEntity
  8
0
  6
Continuous
 62
     7
370
    25
100
AcDbLine
 10
6610.6144003079
 20
7412.3214764466
 30
0.0
 11
6601.4859490024
 21
7412.3214764466
 31
0.0
  0
ARC
  5
E5
330
1F
100
AcDbEntity
  8
0
  6
Continuous
 62
     7
370
    25
100
AcDbCircle
 10
6610.6144003079
 20
7409.8214764466
 30
0.0
 40
2.5
100
AcDbArc
 50
0.0
 51
90.0
  0
ARC
  5
E6
330
1F
100
AcDbEntity
  8
0
  6
Continuous
 62
     7
370
    25
100
AcDbCircle
 10
6610.6144003079
 20
7375.5714764466
 30
0.0
 40
2.5
100
AcDbArc
 50
270.0
 51
0.0
  0
ARC
  5
E7
330
1F
100
AcDbEntity
  8
0
  6
Continuous
 62
     7
370
    25
100
AcDbCircle
 10
6542.6144003079
 20
7232.9464764466
 30
0.0
 40
2.0
100
AcDbArc
 50
180.0
 51
270.0
  0
ARC
  5
E8
330
1F
100
AcDbEntity
  8
0
  6
Continuous
 62
     7
370
    25
100
AcDbCircle
 10
6542.6144003079
 20
7266.4464764466
 30
0.0
 40
2.0
100
AcDbArc
 50
90.0
 51
180.0
  0
LINE
  5
E9
330
1F
100
AcDbEntity
  8
0
  6
Continuous
 62
     7
370
    25
100
AcDbLine
 10
6556.1144003079
 20
7268.4464764466
 30
0.0
 11
6542.6144003079
 21
7268.4464764466
 31
0.0
  0
LINE
  5
EA
330
1F
100
AcDbEntity
  8
0
  6
Continuous
 62
     7
370
    25
100
AcDbLine
 10
6542.6144003079
 20
7230.9464764466
 30
0.0
 11
6556.1144003079
 21
7230.9464764466
 31
0.0
  0
ARC
  5
EB
330
1F
100
AcDbEntity
  8
0
  6
Continuous
 62
     7
370
    25
100
AcDbCircle
 10
6556.1144003079
 20
7232.9464764466
 30
0.0
 40
2.0
100
AcDbArc
 50
270.0
 51
0.0
  0
ARC
  5
EC
330
1F
100
AcDbEntity
  8
0
  6
Continuous
 62
     7
370
    25
100
AcDbCircle
 10
6556.1144003079
 20
7266.4464764466
 30
0.0
 40
2.0
100
AcDbArc
 50
0.0
 51
90.0
  0
LINE
  5
ED
330
1F
100
AcDbEntity
  8
0
  6
Continuous
 62
     7
370
    25
100
AcDbLine
 10
7253.1144003079
 20
7265.6964764466
 30
0.0
 11
6558.1144003079
 21
7265.6964764466
 31
0.0
  0
LINE
  5
EE
330
1F
100
AcDbEntity
  8
0
  6
Continuous
 62
     7
370
    25
100
AcDbLine
 10
6558.1144003079
 20
7233.6964764466
 30
0.0
 11
7253.1144003079
 21
7233.6964764466
 31
0.0
  0
LINE
  5
EF
330
1F
100
AcDbEntity
  8
0
  6
Continuous
 62
     7
370
    25
100
AcDbLine
 10
6613.1144003079
 20
7376.6964764466
 30
0.0
 11
7253.1144003079
 21
7376.6964764466
 31
0.0
  0
LINE
  5
F0
330
1F
100
AcDbEntity
  8
0
  6
Continuous
 62
     7
370
    25
100
AcDbLine
 10
7253.1144003079
 20
7408.6964764466
 30
0.0
 11
6613.1144003079
 21
7408.6964764466
 31
0.0
  0
ARC
  5
F1
330
1F
100
AcDbEntity
  8
0
  6
Continuous
 62
     7
370
    25
100
AcDbCircle
 10
7253.1144003079
 20
7321.1964764466
 30
0.0
 40
55.5
100
AcDbArc
 50
270.0
 51
90.0
  0
ARC
  5
F2
330
1F
100
AcDbEntity
  8
0
  6
Continuous
 62
     7
370
    25
100
AcDbCircle
 10
7253.1144003079
 20
7321.1964764466
 30
0.0
 40
87.5
100
AcDbArc
 50
270.0
 51
0.0
  0
ARC
  5
F3
330
1F
100
AcDbEntity
  8
0
  6
Continuous
 62
     7
370
    25
100
AcDbCircle
 10
7253.1144003079
 20
7321.1964764466
 30
0.0
 40
87.5
100
AcDbArc
 50
0.0
 51
90.0
  0
ARC
  5
F4
330
1F
100
AcDbEntity
  8
0
  6
Continuous
 62
     7
370
    25
100
AcDbCircle
 10
6583.8644003079
 20
7392.6964764466
 30
0.0
 40
25.75000000000033
100
AcDbArc
 50
66.089946059
 51
93.2906083259
  0
LINE
  5
F5
330
1F
100
AcDbEntity
  8
0
  6
Continuous
 62
     7
370
    25
100
AcDbLine
 10
6613.1144003079
 20
7409.8214764466
 30
0.0
 11
6613.1144003079
 21
7375.5714764466
 31
0.0
  0
LINE
  5
F6
330
1F
100
AcDbEntity
  8
0
  6
Continuous
 62
     7
370
    25
100
AcDbLine
 10
6540.6144003079
 20
7249.6964764466
 30
0.0
 11
6540.6144003079
 21
7266.4464764466
 31
0.0
  0
LINE
  5
F7
330
1F
100
AcDbEntity
  8
0
  6
Continuous
 62
     7
370
    25
100
AcDbLine
 10
6540.6144003079
 20
7232.9464764466
 30
0.0
 11
6540.6144003079
 21
7249.6964764466
 31
0.0
  0
LINE
  5
F8
330
1F
100
AcDbEntity
  8
0
  6
Continuous
 62
     7
370
    25
100
AcDbLine
 10
6558.1144003079
 20
7249.6964764466
 30
0.0
 11
6558.1144003079
 21
7232.9464764466
 31
0.0
  0
LINE
  5
F9
330
1F
100
AcDbEntity
  8
0
  6
Continuous
 62
     7
370
    25
100
AcDbLine
 10
6558.1144003079
 20
7266.4464764466
 30
0.0
 11
6558.1144003079
 21
7249.6964764466
 31
0.0
  0
LINE
  5
FA
330
1F
100
AcDbEntity
  8
0
  6
Continuous
 62
     7
370
    25
100
AcDbLine
 10
6605.1144003079
 20
7394.3170721673
 30
0.0
 11
6610.1144003079
 21
7394.3170721673
 31
0.0
  0
ARC
  5
FB
330
1F
100
AcDbEntity
  8
0
  6
Continuous
 62
     7
370
    25
100
AcDbCircle
 10
6484.7541932209
 20
7394.3170721673
 30
0.0
 40
125.3602070869621
100
AcDbArc
 50
359.6020917436
 51
0.0
  0
ARC
  5
FC
330
1F
100
AcDbEntity
  8
0
  6
Continuous
 62
     7
370
    25
100
AcDbCircle
 10
6484.7541932209
 20
7394.3170721673
 30
0.0
 40
120.360207086962
100
AcDbArc
 50
359.5855615686
 51
0.0
  0
SPLINE
  5
FD
330
1F
100
AcDbEntity
  8
0
  6
Continuous
 62
     7
370
    25
100
AcDbSpline
210
0.0
220
0.0
230
1.0
 70
    24
 71
     3
 72
    13
 73
     9
 74
     0
 42
0.00000001
 43
0.00000001
 40
0.0
 40
0.0
 40
0.0
 40
0.0
 40
0.2115145802988739
 40
0.426198048008781
 40
0.6408779755360829
 40
0.7752438174664245
 40
0.9899120409049855
 40
1.0
 40
1.0
 40
1.0
 40
1.0
 10
6605.111251647534
 20
7393.446476446603
 30
0.0
 10
6605.665143961704
 20
7393.446476446603
 30
0.0
 10
6606.781226941765
 20
7393.446476446603
 30
0.0
 10
6608.274466641615
 20
7393.446476446603
 30
0.0
 10
6609.276664042133
 20
7393.446476446603
 30
0.0
 10
6609.930277582961
 20
7393.446476446603
 30
0.0
 10
6610.108241510132
 20
7393.446476446603
 30
0.0
 10
6610.111242537022
 20
7393.446476446603
 30
0.0
 10
6610.111377235148
 20
7393.446476446603
 30
0.0
  0
LINE
  5
FE
330
1F
100
AcDbEntity
  8
0
  6
Continuous
 62
     7
370
    25
100
AcDbLine
 10
6540.6144003079
 20
7426.4464764466
 30
0.0
 11
6556.0584832909
 21
7426.4464764466
 31
0.0
  0
LINE
  5
FF
330
1F
100
AcDbEntity
  8
0
  6
Continuous
 62
     7
370
    25
100
AcDbLine
 10
6556.0584832909
 20
7421.4464764466
 30
0.0
 11
6556.0584832909
 21
7426.4464764466
 31
0.0
  0
LINE
  5
100
330
1F
100
AcDbEntity
  8
0
  6
Continuous
 62
     7
370
    25
100
AcDbLine
 10
6556.0584832909
 20
7421.4464764466
 30
0.0
 11
6540.6144003079
 21
7421.4464764466
 31
0.0
  0
LINE
  5
101
330
1F
100
AcDbEntity
  8
0
  6
Continuous
 62
     7
370
    25
100
AcDbLine
 10
6540.6144003079
 20
7421.4464764466
 30
0.0
 11
6540.6144003079
 21
7426.4464764466
 31
0.0
  0
ARC
  5
102
330
1F
100
AcDbEntity
  8
0
  6
Continuous
 62
     7
370
    25
100
AcDbCircle
 10
6566.6785752626
 20
7427.2701277775
 30
0.0
 40
12.11202990049428
100
AcDbArc
 50
208.738675097
 51
265.4501256811
  0
ARC
  5
103
330
1F
100
AcDbEntity
  8
0
  6
Continuous
 62
     7
370
    25
100
AcDbCircle
 10
6543.9787290849
 20
7142.0160150717
 30
0.0
 40
274.0438573917679
100
AcDbArc
 50
80.3197376651
 51
85.4501256811
  0
ARC
  5
104
330
1F
100
AcDbEntity
  8
0
  6
Continuous
 62
     7
370
    25
100
AcDbCircle
 10
6587.0158898527
 20
7394.3170721673
 30
0.0
 40
18.09851045521373
100
AcDbArc
 50
0.0
 51
80.3197376651
  0
LINE
  5
105
330
1F
100
AcDbEntity
  8
0
  6
Continuous
 62
     7
370
    25
100
AcDbLine
 10
6540.6144003079
 20
7421.4464764466
 30
0.0
 11
6540.6144003079
 21
7393.4464764466
 31
0.0
  0
LINE
  5
106
330
1F
100
AcDbEntity
  8
0
  6
Continuous
 62
     7
370
    25
100
AcDbLine
 10
6540.6144003079
 20
7393.4464764466
 30
0.0
 11
6605.1112516475
 21
7393.4464764466
 31
0.0
  0
LINE
  5
107
330
1F
100
AcDbEntity
  8
0
  6
Continuous
 62
     7
370
    25
100
AcDbLine
 10
6556.0584832909
 20
7421.4464764466
 30
0.0
 11
6560.4425923374
 21
7423.850553789
 31
0.0
  0
ARC
  5
108
330
1F
100
AcDbEntity
  8
0
  6
Continuous
 62
     7
370
    25
100
AcDbCircle
 10
6566.6785752626
 20
7427.2701277775
 30
0.0
 40
7.112029900494953
100
AcDbArc
 50
208.738675097
 51
265.4501256811
  0
LINE
  5
109
330
1F
100
AcDbEntity
  8
0
  6
Continuous
 62
     7
370
    25
100
AcDbLine
 10
6565.7177660399
 20
7415.1962670052
 30
0.0
 11
6566.1144003079
 21
7420.1805103036
 31
0.0
  0
ARC
  5
10A
330
1F
100
AcDbEntity
  8
0
  6
Continuous
 62
     7
370
    25
100
AcDbCircle
 10
6556.0584832909
 20
7421.4464764466
 30
0.0
 40
5.0
100
AcDbArc
 50
28.738675097
 51
90.0
  0
ARC
  5
10B
330
1F
100
AcDbEntity
  8
0
  6
Continuous
 62
     7
370
    25
100
AcDbCircle
 10
6543.9787290849
 20
7142.0160150717
 30
0.0
 40
279.0438573917679
100
AcDbArc
 50
80.3197376651
 51
85.4501256811
  0
LINE
  5
10C
330
1F
100
AcDbEntity
  8
0
  6
Continuous
 62
     7
370
    25
100
AcDbLine
 10
6590.0591508982
 20
7412.1578861315
 30
0.0
 11
6590.8998999347
 21
7417.0866933967
 31
0.0
  0
ARC
  5
10D
330
1F
100
AcDbEntity
  8
0
  6
Continuous
 62
     7
370
    25
100
AcDbCircle
 10
6587.0158898527
 20
7394.3170721673
 30
0.0
 40
23.09851045521373
100
AcDbArc
 50
0.0
 51
80.3197376651
  0
ARC
  5
10E
330
1F
100
AcDbEntity
  8
0
  6
Continuous
 62
     7
370
    25
100
AcDbCircle
 10
6484.7541932209
 20
7395.8170721673
 30
0.0
 40
125.360207086962
100
AcDbArc
 50
339.1338636405
 51
358.9164565908
  0
LINE
  5
10F
330
1F
100
AcDbEntity
  8
0
  6
Continuous
 62
     7
370
    25
100
AcDbLine
 10
6597.2205947485
 20
7352.9464764466
 30
0.0
 11
6601.8926705221
 21
7351.1655474852
 31
0.0
  0
ARC
  5
110
330
1F
100
AcDbEntity
  8
0
  6
Continuous
 62
     7
370
    25
100
AcDbCircle
 10
6484.7541932209
 20
7395.8170721673
 30
0.0
 40
120.3602070869619
100
AcDbArc
 50
339.1338636405
 51
358.8714383579
  0
SPLINE
  5
111
330
1F
100
AcDbEntity
  8
0
  6
Continuous
 62
     7
370
    25
100
AcDbSpline
210
0.0
220
0.0
230
1.0
 70
    24
 71
     3
 72
    13
 73
     9
 74
     0
 42
0.00000001
 43
0.00000001
 40
0.0
 40
0.0
 40
0.0
 40
0.0
 40
0.074026510778568
 40
0.2887367683115116
 40
0.5034353973794472
 40
0.7181017419672227
 40
0.9327295212207748
 40
1.0
 40
1.0
 40
1.0
 40
1.0
 10
6605.091052603012
 20
7393.446476446603
 30
0.0
 10
6605.284072770883
 20
7393.446476446603
 30
0.0
 10
6606.036938452432
 20
7393.446476446603
 30
0.0
 10
6607.323556431552
 20
7393.446476446603
 30
0.0
 10
6608.714779824105
 20
7393.446476446603
 30
0.0
 10
6609.693223626257
 20
7393.446476446603
 30
0.0
 10
6610.062359501077
 20
7393.446476446603
 30
0.0
 10
6610.086276573613
 20
7393.446476446603
 30
0.0
 10
6610.091983997744
 20
7393.446476446603
 30
0.0
  0
LINE
  5
112
330
1F
100
AcDbEntity
  8
0
  6
Continuous
 62
     7
370
    25
100
AcDbLine
 10
6540.6144003079
 20
7352.9464764466
 30
0.0
 11
6597.2205947485
 21
7352.9464764466
 31
0.0
  0
LINE
  5
113
330
1F
100
AcDbEntity
  8
0
  6
Continuous
 62
     7
370
    25
100
AcDbLine
 10
6540.6144003079
 20
7393.4464764466
 30
0.0
 11
6540.6144003079
 21
7352.9464764466
 31
0.0
  0
LINE
  5
114
330
1F
100
AcDbEntity
  8
0
  6
Continuous
 62
     7
370
    25
100
AcDbLine
 10
6540.6144003079
 20
7393.4464764466
 30
0.0
 11
6605.091052603
 21
7393.4464764466
 31
0.0
  0
LINE
  5
115
330
1F
100
AcDbEntity
  8
0
  6
Continuous
 62
     7
370
    25
100
AcDbLine
 10
6597.2205947485
 20
7352.9464764466
 30
0.0
 11
6597.2205947485
 21
7347.9464764466
 31
0.0
  0
LINE
  5
116
330
1F
100
AcDbEntity
  8
0
  6
Continuous
 62
     7
370
    25
100
AcDbLine
 10
6597.2205947485
 20
7347.9464764466
 30
0.0
 11
6540.6144003079
 21
7347.9464764466
 31
0.0
  0
LINE
  5
117
330
1F
100
AcDbEntity
  8
0
  6
Continuous
 62
     7
370
    25
100
AcDbLine
 10
6540.6144003079
 20
7347.9464764466
 30
0.0
 11
6540.6144003079
 21
7352.9464764466
 31
0.0
  0
ARC
  5
118
330
1F
100
AcDbEntity
  8
0
  6
Continuous
 62
     7
370
    25
100
AcDbCircle
 10
6597.2205947485
 20
7352.9464764466
 30
0.0
 40
5.000000000000663
100
AcDbArc
 50
270.0
 51
339.1338636405
  0
LINE
  5
119
330
1F
100
AcDbEntity
  8
0
  6
Continuous
 62
     8
370
    25
100
AcDbLine
 10
6610.6144003079
 20
7373.0714764466
 30
0.0
 11
6610.6144003079
 21
7412.3214764466
 31
0.0
  0
LINE
  5
11A
330
1F
100
AcDbEntity
  8
0
  6
Continuous
 62
     8
370
    25
100
AcDbLine
 10
6542.6144003079
 20
7249.6964764466
 30
0.0
 11
6542.6144003079
 21
7230.9464764466
 31
0.0
  0
LINE
  5
11B
330
1F
100
AcDbEntity
  8
0
  6
Continuous
 62
     8
370
    25
100
AcDbLine
 10
6542.6144003079
 20
7268.4464764466
 30
0.0
 11
6542.6144003079
 21
7249.6964764466
 31
0.0
  0
LINE
  5
11C
330
1F
100
AcDbEntity
  8
0
  6
Continuous
 62
     8
370
    25
100
AcDbLine
 10
6556.1144003079
 20
7249.6964764466
 30
0.0
 11
6556.1144003079
 21
7268.4464764466
 31
0.0
  0
LINE
  5
11D
330
1F
100
AcDbEntity
  8
0
  6
Continuous
 62
     8
370
    25
100
AcDbLine
 10
6556.1144003079
 20
7230.9464764466
 30
0.0
 11
6556.1144003079
 21
7249.6964764466
 31
0.0
  0
LINE
  5
11E
330
1F
100
AcDbEntity
  8
0
  6
Continuous
 62
     8
370
    25
100
AcDbLine
 10
7253.1144003079
 20
7233.6964764466
 30
0.0
 11
7253.1144003079
 21
7265.6964764466
 31
0.0
  0
LINE
  5
11F
330
1F
100
AcDbEntity
  8
0
  6
Continuous
 62
     8
370
    25
100
AcDbLine
 10
7253.1144003079
 20
7408.6964764466
 30
0.0
 11
7253.1144003079
 21
7376.6964764466
 31
0.0
  0
LINE
  5
120
330
1F
100
AcDbEntity
  8
0
  6
Continuous
 62
     7
370
    25
100
AcDbLine
 10
6249.5188220593
 20
6967.3232735706
 30
0.0
 11
6249.7688220593
 21
6967.2920235706
 31
0.0
  0
LINE
  5
121
330
1F
100
AcDbEntity
  8
0
  6
Continuous
 62
     7
370
    25
100
AcDbLine
 10
6298.2688220593
 20
6967.2920235706
 30
0.0
 11
6298.5188220593
 21
6967.3232735706
 31
0.0
  0
LINE
  5
122
330
1F
100
AcDbEntity
  8
0
  6
Continuous
 62
     7
370
    25
100
AcDbLine
 10
6293.587125554
 20
6963.7607735706
 30
0.0
 11
6298.2688220593
 21
6963.7607735706
 31
0.0
  0
LINE
  5
123
330
1F
100
AcDbEntity
  8
0
  6
Continuous
 62
     7
370
    25
100
AcDbLine
 10
6249.7688220593
 20
6963.7607735706
 30
0.0
 11
6254.3938220593
 21
6963.7607735706
 31
0.0
  0
LINE
  5
124
330
1F
100
AcDbEntity
  8
0
  6
Continuous
 62
     7
370
    25
100
AcDbLine
 10
6254.3938220593
 20
6963.7607735706
 30
0.0
 11
6254.3938220593
 21
6962.7607735706
 31
0.0
  0
LINE
  5
125
330
1F
100
AcDbEntity
  8
0
  6
Continuous
 62
     7
370
    25
100
AcDbLine
 10
6293.6438220593
 20
6962.7607735706
 30
0.0
 11
6293.6438220593
 21
6963.8039463721
 31
0.0
  0
ARC
  5
126
330
1F
100
AcDbEntity
  8
0
  6
Continuous
 62
     7
370
    25
100
AcDbCircle
 10
6291.1438220593
 20
6962.7607735706
 30
0.0
 40
2.500000000000909
100
AcDbArc
 50
270.0
 51
0.0
  0
ARC
  5
127
330
1F
100
AcDbEntity
  8
0
  6
Continuous
 62
     7
370
    25
100
AcDbCircle
 10
6256.8938220593
 20
6962.7607735706
 30
0.0
 40
2.500000000000909
100
AcDbArc
 50
180.0
 51
270.0
  0
LINE
  5
128
330
1F
100
AcDbEntity
  8
0
  6
Continuous
 62
     7
370
    25
100
AcDbLine
 10
6258.0188220593
 20
6960.2607735706
 30
0.0
 11
6258.0188220593
 21
6320.2607735706
 31
0.0
  0
LINE
  5
129
330
1F
100
AcDbEntity
  8
0
  6
Continuous
 62
     7
370
    25
100
AcDbLine
 10
6290.0188220593
 20
6320.2607735706
 30
0.0
 11
6290.0188220593
 21
6960.2607735706
 31
0.0
  0
ARC
  5
12A
330
1F
100
AcDbEntity
  8
0
  6
Continuous
 62
     7
370
    25
100
AcDbCircle
 10
6274.0188220593
 20
6248.7607735706
 30
0.0
 40
16.0
100
AcDbArc
 50
180.0
 51
0.0
  0
LINE
  5
12B
330
1F
100
AcDbEntity
  8
0
  6
Continuous
 62
     7
370
    25
100
AcDbLine
 10
6290.0188220593
 20
6248.7607735706
 30
0.0
 11
6290.0188220593
 21
6320.2607735706
 31
0.0
  0
LINE
  5
12C
330
1F
100
AcDbEntity
  8
0
  6
Continuous
 62
     7
370
    25
100
AcDbLine
 10
6258.0188220593
 20
6320.2607735706
 30
0.0
 11
6258.0188220593
 21
6248.7607735706
 31
0.0
  0
SPLINE
  5
12D
330
1F
100
AcDbEntity
  8
0
  6
Continuous
 62
     7
370
    25
100
AcDbSpline
210
0.0
220
0.0
230
1.0
 70
     8
 71
     3
 72
    29
 73
    25
 74
     0
 42
0.00000001
 43
0.00000001
 40
0.0
 40
0.0
 40
0.0
 40
0.0
 40
0.0182691891712277
 40
0.0590181216319521
 40
0.1009050574855987
 40
0.1427734852907587
 40
0.1855494848743662
 40
0.2343487427929035
 40
0.2841407240291992
 40
0.3424597377219982
 40
0.4025346346894187
 40
0.4385820187947848
 40
0.4755159055911452
 40
0.5116231839255789
 40
0.5489917741423078
 40
0.5907047320007021
 40
0.6336081193287477
 40
0.6920589353864687
 40
0.7521690100069335
 40
0.8113713021409944
 40
0.87258708971246
 40
0.9154177514545035
 40
0.9594227460288468
 40
1.0
 40
1.0
 40
1.0
 40
1.0
 10
6293.587125554042
 20
6963.803952083059
 30
0.0
 10
6293.601978736416
 20
6963.792643612761
 30
0.0
 10
6293.649961540454
 20
6963.756111905235
 30
0.0
 10
6293.311442508823
 20
6964.013933416508
 30
0.0
 10
6292.642151490273
 20
6964.51782857166
 30
0.0
 10
6291.61501889354
 20
6965.275804299092
 30
0.0
 10
6290.240842301259
 20
6966.258382401897
 30
0.0
 10
6288.486104764805
 20
6967.454344764174
 30
0.0
 10
6286.230761600367
 20
6968.876794510226
 30
0.0
 10
6283.480525708046
 20
6970.403714905677
 30
0.0
 10
6280.623064759794
 20
6971.646782769367
 30
0.0
 10
6277.943792458262
 20
6972.431459700303
 30
0.0
 10
6275.632072737884
 20
6972.817186263147
 30
0.0
 10
6273.236450243819
 20
6972.878747264688
 30
0.0
 10
6270.765747948304
 20
6972.584960358385
 30
0.0
 10
6268.268497855593
 20
6971.9292721929
 30
0.0
 10
6265.547321056208
 20
6970.867023044725
 30
0.0
 10
6262.767139537516
 20
6969.444494339059
 30
0.0
 10
6260.085924165856
 20
6967.811698558021
 30
0.0
 10
6257.77979518744
 20
6966.253485295551
 30
0.0
 10
6256.135054613576
 20
6965.066841598799
 30
0.0
 10
6255.082416826917
 20
6964.283308369716
 30
0.0
 10
6254.499565404915
 20
6963.841506884108
 30
0.0
 10
6254.428104510933
 20
6963.786947661295
 30
0.0
 10
6254.393822059308
 20
6963.760773570648
 30
0.0
  0
LINE
  5
12E
330
1F
100
AcDbEntity
  8
0
  6
Continuous
 62
     7
370
    25
100
AcDbLine
 10
6298.2688220593
 20
6963.7607735706
 30
0.0
 11
6298.2688220593
 21
6990.9888334163
 31
0.0
  0
LINE
  5
12F
330
1F
100
AcDbEntity
  8
0
  6
Continuous
 62
     7
370
    25
100
AcDbLine
 10
6249.7688220593
 20
6963.7607735706
 30
0.0
 11
6249.7688220593
 21
6990.9888334163
 31
0.0
  0
LINE
  5
130
330
1F
100
AcDbEntity
  8
0
  6
Continuous
 62
     7
370
    25
100
AcDbLine
 10
6291.1438220593
 20
6960.2607735706
 30
0.0
 11
6256.8938220729
 21
6960.2607735706
 31
0.0
  0
LINE
  5
131
330
1F
100
AcDbEntity
  8
0
  6
Continuous
 62
     7
370
    25
100
AcDbLine
 10
6336.5188220593
 20
7017.3166905876
 30
0.0
 11
6341.5188220593
 21
7017.3166905876
 31
0.0
  0
ARC
  5
132
330
1F
100
AcDbEntity
  8
0
  6
Continuous
 62
     7
370
    25
100
AcDbCircle
 10
6336.8078014527
 20
7017.646266552
 30
0.0
 40
4.722534856619939
100
AcDbArc
 50
266.4917887431
 51
355.9981928921
  0
LINE
  5
133
330
1F
100
AcDbEntity
  8
0
  6
Continuous
 62
     7
370
    25
100
AcDbLine
 10
6336.5188220593
 20
7012.9325815411
 30
0.0
 11
6336.5188220593
 21
7017.3166905876
 31
0.0
  0
LINE
  5
134
330
1F
100
AcDbEntity
  8
0
  6
Continuous
 62
     7
370
    25
100
AcDbLine
 10
6341.5188220593
 20
7032.7607735706
 30
0.0
 11
6341.5188220593
 21
7017.3166905876
 31
0.0
  0
LINE
  5
135
330
1F
100
AcDbEntity
  8
0
  6
Continuous
 62
     7
370
    25
100
AcDbLine
 10
6336.5188220593
 20
7017.3166905876
 30
0.0
 11
6336.5188220593
 21
7032.7607735706
 31
0.0
  0
LINE
  5
136
330
1F
100
AcDbEntity
  8
0
  6
Continuous
 62
     7
370
    25
100
AcDbLine
 10
6336.5188220593
 20
7032.7607735706
 30
0.0
 11
6341.5188220593
 21
7032.7607735706
 31
0.0
  0
LINE
  5
137
330
1F
100
AcDbEntity
  8
0
  6
Continuous
 62
     7
370
    25
100
AcDbLine
 10
6211.5188220593
 20
7032.7607735706
 30
0.0
 11
6211.5188220593
 21
7017.3166905876
 31
0.0
  0
LINE
  5
138
330
1F
100
AcDbEntity
  8
0
  6
Continuous
 62
     7
370
    25
100
AcDbLine
 10
6206.5188220593
 20
7017.3166905876
 30
0.0
 11
6211.5188220593
 21
7017.3166905876
 31
0.0
  0
LINE
  5
139
330
1F
100
AcDbEntity
  8
0
  6
Continuous
 62
     7
370
    25
100
AcDbLine
 10
6206.5188220593
 20
7017.3166905876
 30
0.0
 11
6206.5188220593
 21
7032.7607735706
 31
0.0
  0
LINE
  5
13A
330
1F
100
AcDbEntity
  8
0
  6
Continuous
 62
     7
370
    25
100
AcDbLine
 10
6206.5188220593
 20
7032.7607735706
 30
0.0
 11
6211.5188220593
 21
7032.7607735706
 31
0.0
  0
LINE
  5
13B
330
1F
100
AcDbEntity
  8
0
  6
Continuous
 62
     7
370
    25
100
AcDbLine
 10
6211.5188220593
 20
7017.3166905876
 30
0.0
 11
6211.5188220593
 21
7012.9325815411
 31
0.0
  0
LINE
  5
13C
330
1F
100
AcDbEntity
  8
0
  6
Continuous
 62
     7
370
    25
100
AcDbLine
 10
6211.5188220593
 20
7017.3166905876
 30
0.0
 11
6336.5188220593
 21
7017.3166905876
 31
0.0
  0
LINE
  5
13D
330
1F
100
AcDbEntity
  8
0
  6
Continuous
 62
     7
370
    25
100
AcDbLine
 10
6211.5188220593
 20
7012.9325815411
 30
0.0
 11
6336.5188220593
 21
7012.9325815411
 31
0.0
  0
ARC
  5
13E
330
1F
100
AcDbEntity
  8
0
  6
Continuous
 62
     7
370
    25
100
AcDbCircle
 10
6211.2298426659
 20
7017.646266552
 30
0.0
 40
4.72253485661903
100
AcDbArc
 50
184.0018071079
 51
273.5082112569
  0
LINE
  5
13F
330
1F
100
AcDbEntity
  8
0
  6
Continuous
 62
     7
370
    25
100
AcDbLine
 10
6211.5188220593
 20
7032.7607735706
 30
0.0
 11
6336.5188220593
 21
7032.7607735706
 31
0.0
  0
LINE
  5
140
330
1F
100
AcDbEntity
  8
0
  6
Continuous
 62
     7
370
    25
100
AcDbLine
 10
6341.5188220593
 20
7017.3166905876
 30
0.0
 11
6341.5188220593
 21
7007.6574078386
 31
0.0
  0
ARC
  5
141
330
1F
100
AcDbEntity
  8
0
  6
Continuous
 62
     7
370
    25
100
AcDbCircle
 10
6337.7609561222
 20
7023.3158388305
 30
0.0
 40
16.10304373488108
100
AcDbArc
 50
265.5760037154
 51
283.4951883555
  0
LINE
  5
142
330
1F
100
AcDbEntity
  8
0
  6
Continuous
 62
     7
370
    25
100
AcDbLine
 10
6336.5188220593
 20
7007.2607735706
 30
0.0
 11
6336.5188220593
 21
7012.9325815411
 31
0.0
  0
LINE
  5
143
330
1F
100
AcDbEntity
  8
0
  6
Continuous
 62
     7
370
    25
100
AcDbLine
 10
6206.5188220593
 20
7007.6574078386
 30
0.0
 11
6206.5188220593
 21
7017.3166905876
 31
0.0
  0
LINE
  5
144
330
1F
100
AcDbEntity
  8
0
  6
Continuous
 62
     7
370
    25
100
AcDbLine
 10
6211.5188220593
 20
7012.9325815411
 30
0.0
 11
6211.5188220593
 21
7007.2607735706
 31
0.0
  0
ARC
  5
145
330
1F
100
AcDbEntity
  8
0
  6
Continuous
 62
     7
370
    25
100
AcDbCircle
 10
6210.2766879964
 20
7023.3158388305
 30
0.0
 40
16.10304373487292
100
AcDbArc
 50
256.5048116445
 51
274.4239962846
  0
LINE
  5
146
330
1F
100
AcDbEntity
  8
0
  6
Continuous
 62
     7
370
    25
100
AcDbLine
 10
6281.6181641361
 20
7007.2607735706
 30
0.0
 11
6336.5188220593
 21
7007.2607735706
 31
0.0
  0
SPLINE
  5
147
330
1F
100
AcDbEntity
  8
0
  6
Continuous
 62
     7
370
    25
100
AcDbSpline
210
0.0
220
0.0
230
1.0
 70
     8
 71
     3
 72
    12
 73
     8
 74
     0
 42
0.00000001
 43
0.00000001
 40
0.0
 40
0.0
 40
0.0
 40
0.0
 40
0.2118379158656179
 40
0.4297003887439318
 40
0.6418307304106761
 40
0.8604099491940767
 40
1.0
 40
1.0
 40
1.0
 40
1.0
 10
6266.419479982522
 20
7007.260773570648
 30
0.0
 10
6267.457419345671
 20
7007.630115039718
 30
0.0
 10
6269.562816512252
 20
7008.379301851673
 30
0.0
 10
6272.890667411055
 20
7008.818121013069
 30
0.0
 10
6276.269642115951
 20
7008.725092204376
 30
0.0
 10
6279.195739467179
 20
7008.165084673662
 30
0.0
 10
6280.938827017224
 20
7007.514375718598
 30
0.0
 10
6281.618164136093
 20
7007.260773570648
 30
0.0
  0
LINE
  5
148
330
1F
100
AcDbEntity
  8
0
  6
Continuous
 62
     7
370
    25
100
AcDbLine
 10
6211.5188220593
 20
7007.2607735706
 30
0.0
 11
6266.4194799825
 21
7007.2607735706
 31
0.0
  0
LINE
  5
149
330
1F
100
AcDbEntity
  8
0
  6
Continuous
 62
     7
370
    25
100
AcDbLine
 10
6336.5188220593
 20
6982.4752739438
 30
0.0
 11
6336.5188220593
 21
7007.2607735706
 31
0.0
  0
LINE
  5
14A
330
1F
100
AcDbEntity
  8
0
  6
Continuous
 62
     7
370
    25
100
AcDbLine
 10
6298.5188220593
 20
6982.4752739438
 30
0.0
 11
6336.5188220593
 21
6982.4752739438
 31
0.0
  0
LINE
  5
14B
330
1F
100
AcDbEntity
  8
0
  6
Continuous
 62
     7
370
    25
100
AcDbLine
 10
6298.5188220593
 20
6990.7607735706
 30
0.0
 11
6298.5188220593
 21
6982.4752739438
 31
0.0
  0
LINE
  5
14C
330
1F
100
AcDbEntity
  8
0
  6
Continuous
 62
     7
370
    25
100
AcDbLine
 10
6298.2688220593
 20
6990.7607735706
 30
0.0
 11
6298.5188220593
 21
6990.7607735706
 31
0.0
  0
SPLINE
  5
14D
330
1F
100
AcDbEntity
  8
0
  6
Continuous
 62
     7
370
    25
100
AcDbSpline
210
0.0
220
0.0
230
1.0
 70
     8
 71
     3
 72
    14
 73
    10
 74
     0
 42
0.00000001
 43
0.00000001
 40
0.0
 40
0.0
 40
0.0
 40
0.0
 40
0.155203844792846
 40
0.3104086124768473
 40
0.4655976208691046
 40
0.6207900673945073
 40
0.7762898013310227
 40
0.93179643397555
 40
1.0
 40
1.0
 40
1.0
 40
1.0
 10
6281.618164136093
 20
7007.260773570648
 30
0.0
 10
6282.63484578124
 20
7006.782785686916
 30
0.0
 10
6284.668215117046
 20
7005.826807077185
 30
0.0
 10
6287.362570785184
 20
7003.779061259838
 30
0.0
 10
6289.685443593163
 20
7001.339721702712
 30
0.0
 10
6291.572470196971
 20
6998.545582142151
 30
0.0
 10
6292.949017881202
 20
6995.476873692685
 30
0.0
 10
6293.663474929164
 20
6992.835757838458
 30
0.0
 10
6293.858969472994
 20
6991.245578823521
 30
0.0
 10
6293.91857080144
 20
6990.760773570648
 30
0.0
  0
LINE
  5
14E
330
1F
100
AcDbEntity
  8
0
  6
Continuous
 62
     7
370
    25
100
AcDbLine
 10
6211.5188220593
 20
6982.4752739438
 30
0.0
 11
6249.5188220593
 21
6982.4752739438
 31
0.0
  0
LINE
  5
14F
330
1F
100
AcDbEntity
  8
0
  6
Continuous
 62
     7
370
    25
100
AcDbLine
 10
6211.5188220593
 20
7007.2607735706
 30
0.0
 11
6211.5188220593
 21
6982.4752739438
 31
0.0
  0
LINE
  5
150
330
1F
100
AcDbEntity
  8
0
  6
Continuous
 62
     7
370
    25
100
AcDbLine
 10
6249.5188220593
 20
6990.7607735706
 30
0.0
 11
6249.7688220593
 21
6990.7607735706
 31
0.0
  0
LINE
  5
151
330
1F
100
AcDbEntity
  8
0
  6
Continuous
 62
     7
370
    25
100
AcDbLine
 10
6249.5188220593
 20
6990.7607735706
 30
0.0
 11
6249.5188220593
 21
6982.4752739438
 31
0.0
  0
SPLINE
  5
152
330
1F
100
AcDbEntity
  8
0
  6
Continuous
 62
     7
370
    25
100
AcDbSpline
210
0.0
220
0.0
230
1.0
 70
     8
 71
     3
 72
    14
 73
    10
 74
     0
 42
0.00000001
 43
0.00000001
 40
0.0
 40
0.0
 40
0.0
 40
0.0
 40
0.1216019270960197
 40
0.2432009833536425
 40
0.4006299845639949
 40
0.5580537281759467
 40
0.7140022041249546
 40
0.8699488933223801
 40
1.0
 40
1.0
 40
1.0
 40
1.0
 10
6254.119073317175
 20
6990.760773570648
 30
0.0
 10
6254.239443451576
 20
6991.624473155609
 30
0.0
 10
6254.480180878621
 20
6993.351851934884
 30
0.0
 10
6255.339782780707
 20
6996.107867348459
 30
0.0
 10
6256.699703306496
 20
6998.94938044179
 30
0.0
 10
6258.66665943001
 20
7001.733364479998
 30
0.0
 10
6261.080193555437
 20
7004.12396819107
 30
0.0
 10
6263.684435997274
 20
7006.003820145347
 30
0.0
 10
6265.564543231311
 20
7006.867867393034
 30
0.0
 10
6266.419479982522
 20
7007.260773570648
 30
0.0
  0
LWPOLYLINE
  5
153
330
1F
100
AcDbEntity
  8
0
  6
Continuous
 62
     7
370
    25
100
AcDbPolyline
 90
        9
 70
   128
 43
0.0
 10
6336.5188220593
 20
6982.4752739438
 10
6337.4942736694
 20
6982.4914287008
 10
6338.4322392211
 20
6982.5392721535
 10
6339.2966732244
 20
6982.6169657049
 10
6340.0543559652
 20
6982.7215236353
 10
6340.6761701208
 20
6982.8489278422
 10
6341.1382197219
 20
6982.9942822533
 10
6341.4227484613
 20
6983.1520009801
 10
6341.5188220593
 20
6983.3160229803
  0
LINE
  5
154
330
1F
100
AcDbEntity
  8
0
  6
Continuous
 62
     7
370
    25
100
AcDbLine
 10
6341.5188220593
 20
7007.6574078386
 30
0.0
 11
6341.5188220593
 21
6983.3160229803
 31
0.0
  0
LWPOLYLINE
  5
155
330
1F
100
AcDbEntity
  8
0
  6
Continuous
 62
     7
370
    25
100
AcDbPolyline
 90
        9
 70
   128
 43
0.0
 10
6206.5188220593
 20
6983.3160229803
 10
6206.6148956573
 20
6983.1520009801
 10
6206.8994243968
 20
6982.9942822533
 10
6207.3614739978
 20
6982.8489278422
 10
6207.9832881534
 20
6982.7215236353
 10
6208.7409708942
 20
6982.6169657049
 10
6209.6054048975
 20
6982.5392721535
 10
6210.5433704492
 20
6982.4914287008
 10
6211.5188220593
 20
6982.4752739438
  0
LINE
  5
156
330
1F
100
AcDbEntity
  8
0
  6
Continuous
 62
     7
370
    25
100
AcDbLine
 10
6206.5188220593
 20
6983.3160229803
 30
0.0
 11
6206.5188220593
 21
7007.6574078386
 31
0.0
  0
LINE
  5
157
330
1F
100
AcDbEntity
  8
0
  6
Continuous
 62
     7
370
    25
100
AcDbLine
 10
6211.5188220593
 20
6963.2607735706
 30
0.0
 11
6249.5188220593
 21
6963.2607735706
 31
0.0
  0
LINE
  5
158
330
1F
100
AcDbEntity
  8
0
  6
Continuous
 62
     7
370
    25
100
AcDbLine
 10
6211.5188220593
 20
6982.4752739438
 30
0.0
 11
6211.5188220593
 21
6963.2607735706
 31
0.0
  0
LINE
  5
159
330
1F
100
AcDbEntity
  8
0
  6
Continuous
 62
     7
370
    25
100
AcDbLine
 10
6249.5188220593
 20
6982.4752739438
 30
0.0
 11
6249.5188220593
 21
6963.2607735706
 31
0.0
  0
LINE
  5
15A
330
1F
100
AcDbEntity
  8
0
  6
Continuous
 62
     7
370
    25
100
AcDbLine
 10
6336.5188220593
 20
6963.2607735706
 30
0.0
 11
6336.5188220593
 21
6982.4752739438
 31
0.0
  0
ARC
  5
15B
330
1F
100
AcDbEntity
  8
0
  6
Continuous
 62
     7
370
    25
100
AcDbCircle
 10
6336.5188220593
 20
6968.2607735706
 30
0.0
 40
5.0
100
AcDbArc
 50
270.0
 51
0.0
  0
LINE
  5
15C
330
1F
100
AcDbEntity
  8
0
  6
Continuous
 62
     7
370
    25
100
AcDbLine
 10
6341.5188220593
 20
6983.3160229803
 30
0.0
 11
6341.5188220593
 21
6968.2607735706
 31
0.0
  0
LINE
  5
15D
330
1F
100
AcDbEntity
  8
0
  6
Continuous
 62
     7
370
    25
100
AcDbLine
 10
6298.5188220593
 20
6963.2607735706
 30
0.0
 11
6336.5188220593
 21
6963.2607735706
 31
0.0
  0
LINE
  5
15E
330
1F
100
AcDbEntity
  8
0
  6
Continuous
 62
     7
370
    25
100
AcDbLine
 10
6298.5188220593
 20
6982.4752739438
 30
0.0
 11
6298.5188220593
 21
6963.2607735706
 31
0.0
  0
ARC
  5
15F
330
1F
100
AcDbEntity
  8
0
  6
Continuous
 62
     7
370
    25
100
AcDbCircle
 10
6211.5188220593
 20
6968.2607735706
 30
0.0
 40
4.999999999999091
100
AcDbArc
 50
180.0
 51
270.0
  0
LINE
  5
160
330
1F
100
AcDbEntity
  8
0
  6
Continuous
 62
     7
370
    25
100
AcDbLine
 10
6206.5188220593
 20
6968.2607735706
 30
0.0
 11
6206.5188220593
 21
6983.3160229803
 31
0.0
  0
LINE
  5
161
330
1F
100
AcDbEntity
  8
0
  6
Continuous
 62
     7
370
    25
100
AcDbLine
 10
6298.2688220593
 20
6965.678022995
 30
0.0
 11
6298.5188220593
 21
6965.678022995
 31
0.0
  0
LINE
  5
162
330
1F
100
AcDbEntity
  8
0
  6
Continuous
 62
     7
370
    25
100
AcDbLine
 10
6249.5188220593
 20
6965.678022995
 30
0.0
 11
6249.7688220593
 21
6965.678022995
 31
0.0
  0
LINE
  5
163
330
1F
100
AcDbEntity
  8
0
  6
Continuous
 62
     7
370
    25
100
AcDbLine
 10
6249.7688220593
 20
6963.923228927
 30
0.0
 11
6249.5188220593
 21
6963.923228927
 31
0.0
  0
LINE
  5
164
330
1F
100
AcDbEntity
  8
0
  6
Continuous
 62
     7
370
    25
100
AcDbLine
 10
6298.5188220593
 20
6963.923228927
 30
0.0
 11
6298.2688220593
 21
6963.923228927
 31
0.0
  0
LINE
  5
165
330
1F
100
AcDbEntity
  8
0
  6
Continuous
 62
     8
370
    25
100
AcDbLine
 10
6254.3938220593
 20
6962.7607735706
 30
0.0
 11
6293.6438220593
 21
6962.7607735706
 31
0.0
  0
LINE
  5
166
330
1F
100
AcDbEntity
  8
0
  6
Continuous
 62
     8
370
    25
100
AcDbLine
 10
6274.0188220593
 20
6320.2607735706
 30
0.0
 11
6258.0188220593
 21
6320.2607735706
 31
0.0
  0
LINE
  5
167
330
1F
100
AcDbEntity
  8
0
  6
Continuous
 62
     8
370
    25
100
AcDbLine
 10
6290.0188220593
 20
6320.2607735706
 30
0.0
 11
6274.0188220593
 21
6320.2607735706
 31
0.0
  0
ENDSEC
  0
SECTION
  2
OBJECTS
  0
DICTIONARY
  5
C
330
0
100
AcDbDictionary
281
     1
  3
ACAD_GROUP
350
D
  3
ACAD_LAYOUT
350
1A
  3
ACAD_MLINESTYLE
350
17
  3
ACAD_PLOTSETTINGS
350
19
  3
ACAD_PLOTSTYLENAME
350
E
  3
ACAD_SCALELIST
350
47
  3
DWGPROPS
350
168
  0
DICTIONARY
  5
D
102
{ACAD_REACTORS
330
C
102
}
330
C
100
AcDbDictionary
281
     1
  0
DICTIONARY
  5
1A
102
{ACAD_REACTORS
330
C
102
}
330
C
100
AcDbDictionary
281
     1
  3
Layout1
350
1E
  3
Layout2
350
26
  3
Model
350
22
  0
DICTIONARY
  5
17
102
{ACAD_REACTORS
330
C
102
}
330
C
100
AcDbDictionary
281
     1
  3
Standard
350
18
  0
DICTIONARY
  5
19
102
{ACAD_REACTORS
330
C
102
}
330
C
100
AcDbDictionary
281
     1
  0
ACDBDICTIONARYWDFLT
  5
E
102
{ACAD_REACTORS
330
C
102
}
330
C
100
AcDbDictionary
281
     1
  3
Normal
350
F
100
AcDbDictionaryWithDefault
340
F
  0
DICTIONARY
  5
47
102
{ACAD_REACTORS
330
C
102
}
330
C
100
AcDbDictionary
281
     1
  3
A0
350
48
  3
A1
350
49
  3
A2
350
4A
  3
A3
350
4B
  3
A4
350
4C
  3
A5
350
4D
  3
A6
350
4E
  3
A7
350
4F
  3
A8
350
50
  3
A9
350
51
  3
B0
350
52
  3
B1
350
53
  3
B2
350
54
  3
B3
350
55
  3
B4
350
56
  3
B5
350
57
  3
B6
350
58
  3
B7
350
59
  3
B8
350
5A
  3
B9
350
5B
  3
C0
350
5C
  3
C1
350
5D
  3
C2
350
5E
  3
C3
350
5F
  3
C4
350
60
  3
C5
350
61
  3
C6
350
62
  3
C7
350
63
  3
C8
350
64
  3
C9
350
65
  3
D0
350
66
  3
D1
350
67
  3
D2
350
68
  0
XRECORD
  5
168
102
{ACAD_REACTORS
330
C
102
}
330
C
100
AcDbXrecord
280
     1
  1
DWGPROPS COOKIE
  2

  3

  4

  6

  7

  8
radek.stransky
  9

300
=
301
=
302
=
303
=
304
=
305
=
306
=
307
=
308
=
309
=
 40
0.0
 41
2460320.348594271
 42
2460320.348594734
  1

 90
        0
  0
LAYOUT
  5
1E
102
{ACAD_REACTORS
330
1A
102
}
330
1A
100
AcDbPlotSettings
  1

  2
none_device
  4

  6

 40
0.0
 41
0.0
 42
0.0
 43
0.0
 44
0.0
 45
0.0
 46
0.0
 47
0.0
 48
0.0
 49
0.0
140
0.0
141
0.0
142
1.0
143
1.0
 70
   688
 72
     1
 73
     0
 74
     5
  7

 75
    16
147
1.0
148
0.0
149
0.0
100
AcDbLayout
  1
Layout1
 70
     1
 71
     1
 10
0.0
 20
0.0
 11
420.0
 21
297.0
 12
0.0
 22
0.0
 32
0.0
 14
1.0000000000E+20
 24
1.0000000000E+20
 34
1.0000000000E+20
 15
-1.0000000000E+20
 25
-1.0000000000E+20
 35
-1.0000000000E+20
146
0.0
 13
0.0
 23
0.0
 33
0.0
 16
1.0
 26
0.0
 36
0.0
 17
0.0
 27
1.0
 37
0.0
 76
     0
330
1B
  0
LAYOUT
  5
26
102
{ACAD_REACTORS
330
1A
102
}
330
1A
100
AcDbPlotSettings
  1

  2
none_device
  4

  6

 40
0.0
 41
0.0
 42
0.0
 43
0.0
 44
0.0
 45
0.0
 46
0.0
 47
0.0
 48
0.0
 49
0.0
140
0.0
141
0.0
142
1.0
143
1.0
 70
   688
 72
     1
 73
     0
 74
     5
  7

 75
    16
147
1.0
148
0.0
149
0.0
100
AcDbLayout
  1
Layout2
 70
     1
 71
     2
 10
0.0
 20
0.0
 11
0.0
 21
0.0
 12
0.0
 22
0.0
 32
0.0
 14
0.0
 24
0.0
 34
0.0
 15
0.0
 25
0.0
 35
0.0
146
0.0
 13
0.0
 23
0.0
 33
0.0
 16
1.0
 26
0.0
 36
0.0
 17
0.0
 27
1.0
 37
0.0
 76
     0
330
23
  0
LAYOUT
  5
22
102
{ACAD_REACTORS
330
1A
102
}
330
1A
100
AcDbPlotSettings
  1

  2
none_device
  4
Letter_(8.50_x_11.00_Inches)
  6

 40
6.35
 41
6.35
 42
6.35000508
 43
6.35000508
 44
215.9
 45
279.4
 46
0.0
 47
0.0
 48
0.0
 49
0.0
140
0.0
141
0.0
142
1.0
143
1.0
 70
  1712
 72
     1
 73
     0
 74
     0
  7

 75
     0
147
1.0
148
0.0
149
0.0
100
AcDbLayout
  1
Model
 70
     1
 71
     0
 10
0.0
 20
0.0
 11
20000.0
 21
10000.0
 12
0.0
 22
0.0
 32
0.0
 14
0.0
 24
0.0
 34
0.0
 15
20000.0
 25
10000.0
 35
0.0
146
0.0
 13
0.0
 23
0.0
 33
0.0
 16
1.0
 26
0.0
 36
0.0
 17
0.0
 27
1.0
 37
0.0
 76
     0
330
1F
331
29
  0
MLINESTYLE
  5
18
102
{ACAD_REACTORS
330
17
102
}
330
17
100
AcDbMlineStyle
  2
Standard
 70
     0
  3

 62
   256
 51
90.0
 52
90.0
 71
     2
 49
0.5
 62
   256
  6
BYLAYER
 49
-0.5
 62
   256
  6
BYLAYER
  0
ACDBPLACEHOLDER
  5
F
102
{ACAD_REACTORS
330
E
102
}
330
E
  0
SCALE
  5
48
102
{ACAD_REACTORS
330
47
102
}
330
47
100
AcDbScale
 70
     0
300
1:1
140
1.0
141
1.0
290
     1
  0
SCALE
  5
49
102
{ACAD_REACTORS
330
47
102
}
330
47
100
AcDbScale
 70
     0
300
1:2
140
1.0
141
2.0
290
     0
  0
SCALE
  5
4A
102
{ACAD_REACTORS
330
47
102
}
330
47
100
AcDbScale
 70
     0
300
1:4
140
1.0
141
4.0
290
     0
  0
SCALE
  5
4B
102
{ACAD_REACTORS
330
47
102
}
330
47
100
AcDbScale
 70
     0
300
1:5
140
1.0
141
5.0
290
     0
  0
SCALE
  5
4C
102
{ACAD_REACTORS
330
47
102
}
330
47
100
AcDbScale
 70
     0
300
1:8
140
1.0
141
8.0
290
     0
  0
SCALE
  5
4D
102
{ACAD_REACTORS
330
47
102
}
330
47
100
AcDbScale
 70
     0
300
1:10
140
1.0
141
10.0
290
     0
  0
SCALE
  5
4E
102
{ACAD_REACTORS
330
47
102
}
330
47
100
AcDbScale
 70
     0
300
1:16
140
1.0
141
16.0
290
     0
  0
SCALE
  5
4F
102
{ACAD_REACTORS
330
47
102
}
330
47
100
AcDbScale
 70
     0
300
1:20
140
1.0
141
20.0
290
     0
  0
SCALE
  5
50
102
{ACAD_REACTORS
330
47
102
}
330
47
100
AcDbScale
 70
     0
300
1:30
140
1.0
141
30.0
290
     0
  0
SCALE
  5
51
102
{ACAD_REACTORS
330
47
102
}
330
47
100
AcDbScale
 70
     0
300
1:40
140
1.0
141
40.0
290
     0
  0
SCALE
  5
52
102
{ACAD_REACTORS
330
47
102
}
330
47
100
AcDbScale
 70
     0
300
1:50
140
1.0
141
50.0
290
     0
  0
SCALE
  5
53
102
{ACAD_REACTORS
330
47
102
}
330
47
100
AcDbScale
 70
     0
300
1:100
140
1.0
141
100.0
290
     0
  0
SCALE
  5
54
102
{ACAD_REACTORS
330
47
102
}
330
47
100
AcDbScale
 70
     0
300
2:1
140
2.0
141
1.0
290
     0
  0
SCALE
  5
55
102
{ACAD_REACTORS
330
47
102
}
330
47
100
AcDbScale
 70
     0
300
4:1
140
4.0
141
1.0
290
     0
  0
SCALE
  5
56
102
{ACAD_REACTORS
330
47
102
}
330
47
100
AcDbScale
 70
     0
300
8:1
140
8.0
141
1.0
290
     0
  0
SCALE
  5
57
102
{ACAD_REACTORS
330
47
102
}
330
47
100
AcDbScale
 70
     0
300
10:1
140
10.0
141
1.0
290
     0
  0
SCALE
  5
58
102
{ACAD_REACTORS
330
47
102
}
330
47
100
AcDbScale
 70
     0
300
100:1
140
100.0
141
1.0
290
     0
  0
SCALE
  5
59
102
{ACAD_REACTORS
330
47
102
}
330
47
100
AcDbScale
 70
     0
300
1/128" = 1'-0"
140
0.0078125
141
12.0
290
     0
  0
SCALE
  5
5A
102
{ACAD_REACTORS
330
47
102
}
330
47
100
AcDbScale
 70
     0
300
1/64" = 1'-0"
140
0.015625
141
12.0
290
     0
  0
SCALE
  5
5B
102
{ACAD_REACTORS
330
47
102
}
330
47
100
AcDbScale
 70
     0
300
1/32" = 1'-0"
140
0.03125
141
12.0
290
     0
  0
SCALE
  5
5C
102
{ACAD_REACTORS
330
47
102
}
330
47
100
AcDbScale
 70
     0
300
1/16" = 1'-0"
140
0.0625
141
12.0
290
     0
  0
SCALE
  5
5D
102
{ACAD_REACTORS
330
47
102
}
330
47
100
AcDbScale
 70
     0
300
3/32" = 1'-0"
140
0.09375
141
12.0
290
     0
  0
SCALE
  5
5E
102
{ACAD_REACTORS
330
47
102
}
330
47
100
AcDbScale
 70
     0
300
1/8" = 1'-0"
140
0.125
141
12.0
290
     0
  0
SCALE
  5
5F
102
{ACAD_REACTORS
330
47
102
}
330
47
100
AcDbScale
 70
     0
300
3/16" = 1'-0"
140
0.1875
141
12.0
290
     0
  0
SCALE
  5
60
102
{ACAD_REACTORS
330
47
102
}
330
47
100
AcDbScale
 70
     0
300
1/4" = 1'-0"
140
0.25
141
12.0
290
     0
  0
SCALE
  5
61
102
{ACAD_REACTORS
330
47
102
}
330
47
100
AcDbScale
 70
     0
300
3/8" = 1'-0"
140
0.375
141
12.0
290
     0
  0
SCALE
  5
62
102
{ACAD_REACTORS
330
47
102
}
330
47
100
AcDbScale
 70
     0
300
1/2" = 1'-0"
140
0.5
141
12.0
290
     0
  0
SCALE
  5
63
102
{ACAD_REACTORS
330
47
102
}
330
47
100
AcDbScale
 70
     0
300
3/4" = 1'-0"
140
0.75
141
12.0
290
     0
  0
SCALE
  5
64
102
{ACAD_REACTORS
330
47
102
}
330
47
100
AcDbScale
 70
     0
300
1" = 1'-0"
140
1.0
141
12.0
290
     0
  0
SCALE
  5
65
102
{ACAD_REACTORS
330
47
102
}
330
47
100
AcDbScale
 70
     0
300
1-1/2" = 1'-0"
140
1.5
141
12.0
290
     0
  0
SCALE
  5
66
102
{ACAD_REACTORS
330
47
102
}
330
47
100
AcDbScale
 70
     0
300
3" = 1'-0"
140
3.0
141
12.0
290
     0
  0
SCALE
  5
67
102
{ACAD_REACTORS
330
47
102
}
330
47
100
AcDbScale
 70
     0
300
6" = 1'-0"
140
6.0
141
12.0
290
     0
  0
SCALE
  5
68
102
{ACAD_REACTORS
330
47
102
}
330
47
100
AcDbScale
 70
     0
300
1'-0" = 1'-0"
140
12.0
141
12.0
290
     0
  0
ENDSEC
  0
EOF
