  0
SECTION
  2
HEADER
  9
$ACADVER
  1
AC1015
  9
$ACADMAINTVER
 70
     6
  9
$DWGCODEPAGE
  3
ANSI_1250
  9
$INSBASE
 10
0.0
 20
0.0
 30
0.0
  9
$EXTMIN
 10
0.0
 20
0.0
 30
0.0
  9
$EXTMAX
 10
20000.0
 20
10000.0
 30
0.0
  9
$LIMMIN
 10
0.0
 20
0.0
  9
$LIMMAX
 10
20000.0
 20
10000.0
  9
$ORTHOMODE
 70
     0
  9
$REGENMODE
 70
     1
  9
$FILLMODE
 70
     1
  9
$QTEXTMODE
 70
     0
  9
$MIRRTEXT
 70
     1
  9
$LTSCALE
 40
1.0
  9
$ATTMODE
 70
     1
  9
$TEXTSIZE
 40
2.0
  9
$TRACEWID
 40
1.0
  9
$TEXTSTYLE
  7
Standard
  9
$CLAYER
  8
0
  9
$CELTYPE
  6
ByLayer
  9
$CECOLOR
 62
   256
  9
$CELTSCALE
 40
1.0
  9
$DISPSILH
 70
     0
  9
$DIMSCALE
 40
1.0
  9
$DIMASZ
 40
2.0
  9
$DIMEXO
 40
1.0
  9
$DIMDLI
 40
3.75
  9
$DIMRND
 40
0.0
  9
$DIMDLE
 40
0.0
  9
$DIMEXE
 40
1.0
  9
$DIMTP
 40
0.0
  9
$DIMTM
 40
0.0
  9
$DIMTXT
 40
2.0
  9
$DIMCEN
 40
2.5
  9
$DIMTSZ
 40
0.0
  9
$DIMTOL
 70
     0
  9
$DIMLIM
 70
     0
  9
$DIMTIH
 70
     1
  9
$DIMTOH
 70
     1
  9
$DIMSE1
 70
     0
  9
$DIMSE2
 70
     0
  9
$DIMTAD
 70
     1
  9
$DIMZIN
 70
     0
  9
$DIMBLK
  1

  9
$DIMASO
 70
     1
  9
$DIMSHO
 70
     1
  9
$DIMPOST
  1

  9
$DIMAPOST
  1

  9
$DIMALT
 70
     0
  9
$DIMALTD
 70
     3
  9
$DIMALTF
 40
0.0393700787
  9
$DIMLFAC
 40
1.0
  9
$DIMTOFL
 70
     1
  9
$DIMTVP
 40
0.0
  9
$DIMTIX
 70
     0
  9
$DIMSOXD
 70
     0
  9
$DIMSAH
 70
     0
  9
$DIMBLK1
  1

  9
$DIMBLK2
  1

  9
$DIMSTYLE
  2
ISO-25
  9
$DIMCLRD
 70
     0
  9
$DIMCLRE
 70
     0
  9
$DIMCLRT
 70
     0
  9
$DIMTFAC
 40
1.0
  9
$DIMGAP
 40
1.524
  9
$DIMJUST
 70
     0
  9
$DIMSD1
 70
     0
  9
$DIMSD2
 70
     0
  9
$DIMTOLJ
 70
     0
  9
$DIMTZIN
 70
     0
  9
$DIMALTZ
 70
     0
  9
$DIMALTTZ
 70
     0
  9
$DIMUPT
 70
     0
  9
$DIMDEC
 70
     2
  9
$DIMTDEC
 70
     0
  9
$DIMALTU
 70
     2
  9
$DIMALTTD
 70
     3
  9
$DIMTXSTY
  7
Standard
  9
$DIMAUNIT
 70
     0
  9
$DIMADEC
 70
     2
  9
$DIMALTRND
 40
0.0
  9
$DIMAZIN
 70
     0
  9
$DIMDSEP
 70
    44
  9
$DIMATFIT
 70
     3
  9
$DIMFRAC
 70
     0
  9
$DIMLDRBLK
  1

  9
$DIMLUNIT
 70
     2
  9
$DIMLWD
 70
    -2
  9
$DIMLWE
 70
    -2
  9
$DIMTMOVE
 70
     0
  9
$LUNITS
 70
     2
  9
$LUPREC
 70
     3
  9
$SKETCHINC
 40
1.0
  9
$FILLETRAD
 40
10.0
  9
$AUNITS
 70
     0
  9
$AUPREC
 70
     2
  9
$MENU
  1
.
  9
$ELEVATION
 40
0.0
  9
$PELEVATION
 40
0.0
  9
$THICKNESS
 40
0.0
  9
$LIMCHECK
 70
     0
  9
$CHAMFERA
 40
0.0
  9
$CHAMFERB
 40
0.0
  9
$CHAMFERC
 40
0.0
  9
$CHAMFERD
 40
0.0
  9
$SKPOLY
 70
     0
  9
$TDCREATE
 40
2460318.408700475
  9
$TDUCREATE
 40
2460318.367033808
  9
$TDUPDATE
 40
2460318.408700822
  9
$TDUUPDATE
 40
2460318.367034155
  9
$TDINDWG
 40
0.0000000116
  9
$TDUSRTIMER
 40
0.0000000116
  9
$USRTIMER
 70
     1
  9
$ANGBASE
 50
0.0
  9
$ANGDIR
 70
     0
  9
$PDMODE
 70
     0
  9
$PDSIZE
 40
-1.0
  9
$PLINEWID
 40
0.0
  9
$SPLFRAME
 70
     0
  9
$SPLINETYPE
 70
     6
  9
$SPLINESEGS
 70
     8
  9
$HANDSEED
  5
F0
  9
$SURFTAB1
 70
     6
  9
$SURFTAB2
 70
     6
  9
$SURFTYPE
 70
     6
  9
$SURFU
 70
     6
  9
$SURFV
 70
     6
  9
$UCSBASE
  2

  9
$UCSNAME
  2

  9
$UCSORG
 10
0.0
 20
0.0
 30
0.0
  9
$UCSXDIR
 10
1.0
 20
0.0
 30
0.0
  9
$UCSYDIR
 10
0.0
 20
1.0
 30
0.0
  9
$UCSORTHOREF
  2

  9
$UCSORTHOVIEW
 70
     0
  9
$UCSORGTOP
 10
0.0
 20
0.0
 30
0.0
  9
$UCSORGBOTTOM
 10
0.0
 20
0.0
 30
0.0
  9
$UCSORGLEFT
 10
0.0
 20
0.0
 30
0.0
  9
$UCSORGRIGHT
 10
0.0
 20
0.0
 30
0.0
  9
$UCSORGFRONT
 10
0.0
 20
0.0
 30
0.0
  9
$UCSORGBACK
 10
0.0
 20
0.0
 30
0.0
  9
$PUCSBASE
  2

  9
$PUCSNAME
  2

  9
$PUCSORG
 10
0.0
 20
0.0
 30
0.0
  9
$PUCSXDIR
 10
1.0
 20
0.0
 30
0.0
  9
$PUCSYDIR
 10
0.0
 20
1.0
 30
0.0
  9
$PUCSORTHOREF
  2

  9
$PUCSORTHOVIEW
 70
     0
  9
$PUCSORGTOP
 10
0.0
 20
0.0
 30
0.0
  9
$PUCSORGBOTTOM
 10
0.0
 20
0.0
 30
0.0
  9
$PUCSORGLEFT
 10
0.0
 20
0.0
 30
0.0
  9
$PUCSORGRIGHT
 10
0.0
 20
0.0
 30
0.0
  9
$PUCSORGFRONT
 10
0.0
 20
0.0
 30
0.0
  9
$PUCSORGBACK
 10
0.0
 20
0.0
 30
0.0
  9
$USERI1
 70
     0
  9
$USERI2
 70
     0
  9
$USERI3
 70
     0
  9
$USERI4
 70
     0
  9
$USERI5
 70
     0
  9
$USERR1
 40
0.0
  9
$USERR2
 40
0.0
  9
$USERR3
 40
0.0
  9
$USERR4
 40
0.0
  9
$USERR5
 40
0.0
  9
$WORLDVIEW
 70
     1
  9
$SHADEDGE
 70
     3
  9
$SHADEDIF
 70
    70
  9
$TILEMODE
 70
     1
  9
$MAXACTVP
 70
    64
  9
$PINSBASE
 10
0.0
 20
0.0
 30
0.0
  9
$PLIMCHECK
 70
     0
  9
$PEXTMIN
 10
1.0000000000E+20
 20
1.0000000000E+20
 30
1.0000000000E+20
  9
$PEXTMAX
 10
-1.0000000000E+20
 20
-1.0000000000E+20
 30
-1.0000000000E+20
  9
$PLIMMIN
 10
0.0
 20
0.0
  9
$PLIMMAX
 10
420.0
 20
297.0
  9
$UNITMODE
 70
     0
  9
$VISRETAIN
 70
     1
  9
$PLINEGEN
 70
     0
  9
$PSLTSCALE
 70
     1
  9
$TREEDEPTH
 70
  3020
  9
$CMLSTYLE
  2
Standard
  9
$CMLJUST
 70
     0
  9
$CMLSCALE
 40
20.0
  9
$PROXYGRAPHICS
 70
     1
  9
$MEASUREMENT
 70
     1
  9
$CELWEIGHT
370
    -1
  9
$ENDCAPS
280
     0
  9
$JOINSTYLE
280
     0
  9
$LWDISPLAY
290
     1
  9
$INSUNITS
 70
     4
  9
$HYPERLINKBASE
  1

  9
$STYLESHEET
  1

  9
$XEDIT
290
     1
  9
$CEPSNTYPE
380
     0
  9
$PSTYLEMODE
290
     1
  9
$FINGERPRINTGUID
  2
{ed07aca9-9319-43d7-b725-c1fa90175b2c}
  9
$VERSIONGUID
  2
{FAEB1C32-E019-11D5-929B-00C0DF256EC4}
  9
$EXTNAMES
290
     1
  9
$PSVPSCALE
 40
0.0
  9
$OLESTARTUP
290
     0
  0
ENDSEC
  0
SECTION
  2
CLASSES
  0
CLASS
  1
ACDBDICTIONARYWDFLT
  2
AcDbDictionaryWithDefault
  3
ObjectDBX Classes
 90
        0
280
     0
281
     0
  0
CLASS
  1
VISUALSTYLE
  2
AcDbVisualStyle
  3
ObjectDBX Classes
 90
     4095
280
     0
281
     0
  0
CLASS
  1
MATERIAL
  2
AcDbMaterial
  3
ObjectDBX Classes
 90
     1153
280
     0
281
     0
  0
CLASS
  1
SCALE
  2
AcDbScale
  3
ObjectDBX Classes
 90
     1153
280
     0
281
     0
  0
CLASS
  1
TABLESTYLE
  2
AcDbTableStyle
  3
ObjectDBX Classes
 90
     4095
280
     0
281
     0
  0
CLASS
  1
MLEADERSTYLE
  2
AcDbMLeaderStyle
  3
ACDB_MLEADERSTYLE_CLASS
 90
     4095
280
     0
281
     0
  0
CLASS
  1
SUN
  2
AcDbSun
  3
SCENEOE
 90
     1153
280
     0
281
     0
  0
CLASS
  1
ACDBPLACEHOLDER
  2
AcDbPlaceHolder
  3
ObjectDBX Classes
 90
        0
280
     0
281
     0
  0
CLASS
  1
LAYOUT
  2
AcDbLayout
  3
ObjectDBX Classes
 90
        0
280
     0
281
     0
  0
ENDSEC
  0
SECTION
  2
TABLES
  0
TABLE
  2
VPORT
  5
8
330
0
100
AcDbSymbolTable
 70
     1
  0
VPORT
  5
29
330
8
100
AcDbSymbolTableRecord
100
AcDbViewportTableRecord
  2
*Active
 70
     0
 10
0.0
 20
0.0
 11
1.0
 21
1.0
 12
10000.0
 22
5000.0
 13
0.0
 23
0.0
 14
10.0
 24
10.0
 15
10.0
 25
10.0
 16
0.0
 26
0.0
 36
1.0
 17
0.0
 27
0.0
 37
0.0
 40
10000.0
 41
2.0
 42
50.0
 43
0.0
 44
0.0
 50
0.0
 51
0.0
 71
     0
 72
  2000
 73
     1
 74
     3
 75
     0
 76
     0
 77
     0
 78
     0
281
     0
 65
     1
110
0.0
120
0.0
130
0.0
111
1.0
121
0.0
131
0.0
112
0.0
122
1.0
132
0.0
 79
     0
146
0.0
  0
ENDTAB
  0
TABLE
  2
LTYPE
  5
5
330
0
100
AcDbSymbolTable
 70
     6
  0
LTYPE
  5
14
330
5
100
AcDbSymbolTableRecord
100
AcDbLinetypeTableRecord
  2
ByBlock
 70
     0
  3

 72
    65
 73
     0
 40
0.0
  0
LTYPE
  5
15
330
5
100
AcDbSymbolTableRecord
100
AcDbLinetypeTableRecord
  2
ByLayer
 70
     0
  3

 72
    65
 73
     0
 40
0.0
  0
LTYPE
  5
16
330
5
100
AcDbSymbolTableRecord
100
AcDbLinetypeTableRecord
  2
Continuous
 70
     0
  3
Solid line
 72
    65
 73
     0
 40
0.0
  0
LTYPE
  5
6E
330
5
100
AcDbSymbolTableRecord
100
AcDbLinetypeTableRecord
  2
HIDDEN
 70
     0
  3
Hidden __ __ __ __ __ __ __ __ __ __ __ __ __ __
 72
    65
 73
     2
 40
1.905
 49
1.27
 74
     0
 49
-0.635
 74
     0
  0
LTYPE
  5
6F
330
5
100
AcDbSymbolTableRecord
100
AcDbLinetypeTableRecord
  2
PHANTOM
 70
     0
  3
Phantom ______  __  __  ______  __  __  ______
 72
    65
 73
     6
 40
12.7
 49
6.35
 74
     0
 49
-1.27
 74
     0
 49
1.27
 74
     0
 49
-1.27
 74
     0
 49
1.27
 74
     0
 49
-1.27
 74
     0
  0
LTYPE
  5
70
330
5
100
AcDbSymbolTableRecord
100
AcDbLinetypeTableRecord
  2
CENTER
 70
     0
  3
Center ____ _ ____ _ ____ _ ____ _ ____ _ ____
 72
    65
 73
     4
 40
10.16
 49
6.35
 74
     0
 49
-1.27
 74
     0
 49
1.27
 74
     0
 49
-1.27
 74
     0
  0
LTYPE
  5
71
330
5
100
AcDbSymbolTableRecord
100
AcDbLinetypeTableRecord
  2
CENTERX2
 70
     0
  3
Center (2x) ________  __  ________  __  _____
 72
    65
 73
     4
 40
20.32
 49
12.7
 74
     0
 49
-2.54
 74
     0
 49
2.54
 74
     0
 49
-2.54
 74
     0
  0
LTYPE
  5
72
330
5
100
AcDbSymbolTableRecord
100
AcDbLinetypeTableRecord
  2
DOT2
 70
     0
  3
Dot (.5x) ........................................
 72
    65
 73
     2
 40
0.635
 49
0.0
 74
     0
 49
-0.635
 74
     0
  0
ENDTAB
  0
TABLE
  2
LAYER
  5
2
330
0
100
AcDbSymbolTable
 70
    13
  0
LAYER
  5
10
330
2
100
AcDbSymbolTableRecord
100
AcDbLayerTableRecord
  2
0
 70
     0
 62
     7
  6
Continuous
370
    -3
390
F
  0
LAYER
  5
73
330
2
100
AcDbSymbolTableRecord
100
AcDbLayerTableRecord
  2
FORMAT
 70
     0
 62
     7
  6
Continuous
370
    -3
390
F
  0
LAYER
  5
74
330
2
100
AcDbSymbolTableRecord
100
AcDbLayerTableRecord
  2
OSA
 70
     0
 62
     7
  6
CENTER
370
    -3
390
F
  0
LAYER
  5
75
330
2
100
AcDbSymbolTableRecord
100
AcDbLayerTableRecord
  2
0_35
 70
     0
 62
     7
  6
Continuous
370
    35
390
F
  0
LAYER
  5
76
330
2
100
AcDbSymbolTableRecord
100
AcDbLayerTableRecord
  2
0_5
 70
     0
 62
     7
  6
Continuous
370
    50
390
F
  0
LAYER
  5
77
330
2
100
AcDbSymbolTableRecord
100
AcDbLayerTableRecord
  2
0_25
 70
     0
 62
     7
  6
Continuous
370
    25
390
F
  0
LAYER
  5
78
330
2
100
AcDbSymbolTableRecord
100
AcDbLayerTableRecord
  2
0_18
 70
     0
 62
     7
  6
Continuous
370
    -3
390
F
  0
LAYER
  5
79
330
2
100
AcDbSymbolTableRecord
100
AcDbLayerTableRecord
  2
SLD-0
 70
     0
 62
   179
  6
Continuous
370
    -3
390
F
  0
LAYER
  5
7A
330
2
100
AcDbSymbolTableRecord
100
AcDbLayerTableRecord
  2
KOTY
 70
     0
 62
     7
  6
Continuous
370
    -3
390
F
  0
LAYER
  5
7B
330
2
100
AcDbSymbolTableRecord
100
AcDbLayerTableRecord
  2
SILNA
 70
     0
 62
   179
  6
Continuous
370
    -3
390
F
  0
LAYER
  5
7C
330
2
100
AcDbSymbolTableRecord
100
AcDbLayerTableRecord
  2
0_18_1
 70
     0
 62
   179
  6
Continuous
370
    -3
390
F
  0
LAYER
  5
7D
330
2
100
AcDbSymbolTableRecord
100
AcDbLayerTableRecord
  2
0_35_1
 70
     0
 62
   179
  6
Continuous
370
    35
390
F
  0
LAYER
  5
7E
330
2
100
AcDbSymbolTableRecord
100
AcDbLayerTableRecord
  2
0_5_1
 70
     0
 62
   179
  6
Continuous
370
    50
390
F
  0
ENDTAB
  0
TABLE
  2
STYLE
  5
3
330
0
100
AcDbSymbolTable
 70
     1
  0
STYLE
  5
11
330
3
100
AcDbSymbolTableRecord
100
AcDbTextStyleTableRecord
  2
Standard
 70
     0
 40
0.0
 41
1.0
 50
0.0
 71
     0
 42
2.0
  3
txt
  4

  0
ENDTAB
  0
TABLE
  2
VIEW
  5
6
330
0
100
AcDbSymbolTable
 70
     0
  0
ENDTAB
  0
TABLE
  2
UCS
  5
7
330
0
100
AcDbSymbolTable
 70
     0
  0
ENDTAB
  0
TABLE
  2
APPID
  5
9
330
0
100
AcDbSymbolTable
 70
     1
  0
APPID
  5
12
330
9
100
AcDbSymbolTableRecord
100
AcDbRegAppTableRecord
  2
ACAD
 70
     0
  0
ENDTAB
  0
TABLE
  2
DIMSTYLE
  5
A
330
0
100
AcDbSymbolTable
 70
     1
100
AcDbDimStyleTable
  0
DIMSTYLE
105
27
330
A
100
AcDbSymbolTableRecord
100
AcDbDimStyleTableRecord
  2
ISO-25
 70
     0
 41
2.5
 42
0.625
 43
3.75
 44
1.25
 73
     0
 74
     0
 77
     1
 78
     8
140
2.5
141
2.5
143
0.0393700787
147
0.625
171
     3
172
     1
178
     0
271
     2
272
     2
274
     3
278
    44
283
     0
284
     8
340
11
  0
ENDTAB
  0
TABLE
  2
BLOCK_RECORD
  5
1
330
0
100
AcDbSymbolTable
 70
     1
  0
BLOCK_RECORD
  5
1F
330
1
100
AcDbSymbolTableRecord
100
AcDbBlockTableRecord
  2
*Model_Space
340
22
  0
BLOCK_RECORD
  5
1B
330
1
100
AcDbSymbolTableRecord
100
AcDbBlockTableRecord
  2
*Paper_Space
340
1E
  0
BLOCK_RECORD
  5
23
330
1
100
AcDbSymbolTableRecord
100
AcDbBlockTableRecord
  2
*Paper_Space0
340
26
  0
ENDTAB
  0
ENDSEC
  0
SECTION
  2
BLOCKS
  0
BLOCK
  5
20
330
1F
100
AcDbEntity
  8
0
100
AcDbBlockBegin
  2
*Model_Space
 70
     0
 10
0.0
 20
0.0
 30
0.0
  3
*Model_Space
  1

  0
ENDBLK
  5
21
330
1F
100
AcDbEntity
  8
0
100
AcDbBlockEnd
  0
BLOCK
  5
1C
330
1B
100
AcDbEntity
 67
     1
  8
0
100
AcDbBlockBegin
  2
*Paper_Space
 70
     0
 10
0.0
 20
0.0
 30
0.0
  3
*Paper_Space
  1

  0
ENDBLK
  5
1D
330
1B
100
AcDbEntity
 67
     1
  8
0
100
AcDbBlockEnd
  0
BLOCK
  5
24
330
23
100
AcDbEntity
  8
0
100
AcDbBlockBegin
  2
*Paper_Space0
 70
     0
 10
0.0
 20
0.0
 30
0.0
  3
*Paper_Space0
  1

  0
ENDBLK
  5
25
330
23
100
AcDbEntity
  8
0
100
AcDbBlockEnd
  0
ENDSEC
  0
SECTION
  2
ENTITIES
  0
LINE
  5
7F
330
1F
100
AcDbEntity
  8
0
  6
Continuous
 62
     7
370
    25
100
AcDbLine
 10
6216.4503813105
 20
5153.8952456163
 30
0.0
 11
6078.2077406234
 21
5292.1378863034
 31
0.0
  0
LINE
  5
80
330
1F
100
AcDbEntity
  8
0
  6
Continuous
 62
     7
370
    25
100
AcDbLine
 10
6055.5803236254
 20
5269.5104693054
 30
0.0
 11
6193.8229643125
 21
5131.2678286183
 31
0.0
  0
ARC
  5
81
330
1F
100
AcDbEntity
  8
0
  6
Continuous
 62
     7
370
    25
100
AcDbCircle
 10
6244.734652558
 20
5182.1795168638
 30
0.0
 40
39.99999999999968
100
AcDbArc
 50
225.0
 51
270.0
  0
ARC
  5
82
330
1F
100
AcDbEntity
  8
0
  6
Continuous
 62
     7
370
    25
100
AcDbCircle
 10
6244.734652558
 20
5182.1795168638
 30
0.0
 40
71.99999999999929
100
AcDbArc
 50
225.0
 51
270.0
  0
LINE
  5
83
330
1F
100
AcDbEntity
  8
0
  6
Continuous
 62
     7
370
    25
100
AcDbLine
 10
6020.2249845661
 20
5304.8658083648
 30
0.0
 11
6055.5803236254
 21
5269.5104693054
 31
0.0
  0
LINE
  5
84
330
1F
100
AcDbEntity
  8
0
  6
Continuous
 62
     7
370
    25
100
AcDbLine
 10
6078.2077406234
 20
5292.1378863034
 30
0.0
 11
6042.852401564
 21
5327.4932253627
 31
0.0
  0
LINE
  5
85
330
1F
100
AcDbEntity
  8
0
  6
Continuous
 62
     7
370
    25
100
AcDbLine
 10
6451.5386930651
 20
5110.1795168638
 30
0.0
 11
6501.5386930651
 21
5110.1795168638
 31
0.0
  0
LINE
  5
86
330
1F
100
AcDbEntity
  8
0
  6
Continuous
 62
     7
370
    25
100
AcDbLine
 10
6501.5386930651
 20
5142.1795168638
 30
0.0
 11
6451.5386930651
 21
5142.1795168638
 31
0.0
  0
LINE
  5
87
330
1F
100
AcDbEntity
  8
0
  6
Continuous
 62
     7
370
    25
100
AcDbLine
 10
6451.5386930651
 20
5142.1795168638
 30
0.0
 11
6244.734652558
 21
5142.1795168638
 31
0.0
  0
LINE
  5
88
330
1F
100
AcDbEntity
  8
0
  6
Continuous
 62
     7
370
    25
100
AcDbLine
 10
6244.734652558
 20
5110.1795168638
 30
0.0
 11
6451.5386930651
 21
5110.1795168638
 31
0.0
  0
ARC
  5
89
330
1F
100
AcDbEntity
  8
0
  6
Continuous
 62
     7
370
    25
100
AcDbCircle
 10
6031.5386930651
 20
5316.1795168638
 30
0.0
 40
16.52442426687625
100
AcDbArc
 50
30.5265798702
 51
135.0
  0
ARC
  5
8A
330
1F
100
AcDbEntity
  8
0
  6
Continuous
 62
     7
370
    25
100
AcDbCircle
 10
6031.5386930651
 20
5316.1795168638
 30
0.0
 40
16.5244242668761
100
AcDbArc
 50
135.0
 51
239.4734201298
  0
ARC
  5
8B
330
1F
100
AcDbEntity
  8
0
  6
Continuous
 62
     7
370
    25
100
AcDbCircle
 10
6031.5386930651
 20
5316.1795168638
 30
0.0
 40
41.24999999999989
100
AcDbArc
 50
337.8225756208
 51
135.0
  0
ARC
  5
8C
330
1F
100
AcDbEntity
  8
0
  6
Continuous
 62
     7
370
    25
100
AcDbCircle
 10
6031.5386930651
 20
5316.1795168638
 30
0.0
 40
41.24999999999997
100
AcDbArc
 50
135.0
 51
292.1774243792
  0
ARC
  5
8D
330
1F
100
AcDbEntity
  8
0
  6
Continuous
 62
     7
370
    25
100
AcDbCircle
 10
6501.5386930651
 20
5126.1795168638
 30
0.0
 40
16.52442426687685
100
AcDbArc
 50
255.5265798702
 51
90.0
  0
LWPOLYLINE
  5
8E
330
1F
100
AcDbEntity
  8
0
  6
Continuous
 62
     7
370
    25
100
AcDbPolyline
 90
        3
 70
   128
 43
0.0
 10
6497.4087297054
 20
5142.1795168638
 10
6499.1327175957
 20
5142.5278464235
 10
6501.5386930651
 20
5142.7039411306
  0
ARC
  5
8F
330
1F
100
AcDbEntity
  8
0
  6
Continuous
 62
     7
370
    25
100
AcDbCircle
 10
6501.5386930651
 20
5126.1795168638
 30
0.0
 40
41.25000000000034
100
AcDbArc
 50
202.8225756208
 51
90.0
  0
ARC
  5
90
330
1F
100
AcDbEntity
  8
0
  6
Continuous
 62
     7
370
    25
100
AcDbCircle
 10
6501.5386930651
 20
5126.1795168638
 30
0.0
 40
41.25000000000034
100
AcDbArc
 50
90.0
 51
157.1774243792
  0
ARC
  5
91
330
1F
100
AcDbEntity
  8
0
  6
Continuous
 62
     7
370
    25
100
AcDbCircle
 10
6031.5386930651
 20
5316.1795168638
 30
0.0
 40
16.00000000000077
100
AcDbArc
 50
45.0
 51
135.0
  0
ARC
  5
92
330
1F
100
AcDbEntity
  8
0
  6
Continuous
 62
     7
370
    25
100
AcDbCircle
 10
6031.5386930651
 20
5316.1795168638
 30
0.0
 40
16.00000000000077
100
AcDbArc
 50
135.0
 51
225.0
  0
ARC
  5
93
330
1F
100
AcDbEntity
  8
0
  6
Continuous
 62
     7
370
    25
100
AcDbCircle
 10
6501.5386930651
 20
5126.1795168638
 30
0.0
 40
16.0
100
AcDbArc
 50
0.0
 51
90.0
  0
ARC
  5
94
330
1F
100
AcDbEntity
  8
0
  6
Continuous
 62
     7
370
    25
100
AcDbCircle
 10
6501.5386930651
 20
5126.1795168638
 30
0.0
 40
16.0
100
AcDbArc
 50
270.0
 51
0.0
  0
ARC
  5
95
330
1F
100
AcDbEntity
  8
0
  6
Continuous
 62
     8
370
    25
100
AcDbCircle
 10
6031.5386930651
 20
5316.1795168638
 30
0.0
 40
39.3850309387849
100
AcDbArc
 50
338.9692135489
 51
135.0
  0
ARC
  5
96
330
1F
100
AcDbEntity
  8
0
  6
Continuous
 62
     8
370
    25
100
AcDbCircle
 10
6031.5386930651
 20
5316.1795168638
 30
0.0
 40
39.38503093878438
100
AcDbArc
 50
135.0
 51
291.0307864511
  0
ARC
  5
97
330
1F
100
AcDbEntity
  8
0
  6
Continuous
 62
     8
370
    25
100
AcDbCircle
 10
6501.5386930651
 20
5126.1795168638
 30
0.0
 40
39.38503093878444
100
AcDbArc
 50
203.9692135489
 51
90.0
  0
ARC
  5
98
330
1F
100
AcDbEntity
  8
0
  6
Continuous
 62
     8
370
    25
100
AcDbCircle
 10
6501.5386930651
 20
5126.1795168638
 30
0.0
 40
39.38503093878444
100
AcDbArc
 50
90.0
 51
156.0307864511
  0
LINE
  5
99
330
1F
100
AcDbEntity
  8
0
  6
Continuous
 62
     8
370
    25
100
AcDbLine
 10
6066.8940321244
 20
5280.8241778044
 30
0.0
 11
6078.2077406234
 21
5292.1378863034
 31
0.0
  0
LINE
  5
9A
330
1F
100
AcDbEntity
  8
0
  6
Continuous
 62
     8
370
    25
100
AcDbLine
 10
6055.5803236254
 20
5269.5104693054
 30
0.0
 11
6066.8940321244
 21
5280.8241778044
 31
0.0
  0
LINE
  5
9B
330
1F
100
AcDbEntity
  8
0
  6
Continuous
 62
     8
370
    25
100
AcDbLine
 10
6205.1366728115
 20
5142.5815371173
 30
0.0
 11
6216.4503813105
 21
5153.8952456163
 31
0.0
  0
LINE
  5
9C
330
1F
100
AcDbEntity
  8
0
  6
Continuous
 62
     8
370
    25
100
AcDbLine
 10
6193.8229643125
 20
5131.2678286183
 30
0.0
 11
6205.1366728115
 21
5142.5815371173
 31
0.0
  0
LINE
  5
9D
330
1F
100
AcDbEntity
  8
0
  6
Continuous
 62
     8
370
    25
100
AcDbLine
 10
6244.734652558
 20
5126.1795168638
 30
0.0
 11
6244.734652558
 21
5142.1795168638
 31
0.0
  0
LINE
  5
9E
330
1F
100
AcDbEntity
  8
0
  6
Continuous
 62
     8
370
    25
100
AcDbLine
 10
6244.734652558
 20
5110.1795168638
 30
0.0
 11
6244.734652558
 21
5126.1795168638
 31
0.0
  0
LINE
  5
9F
330
1F
100
AcDbEntity
  8
0
  6
Continuous
 62
     8
370
    25
100
AcDbLine
 10
6451.5386930651
 20
5126.1795168638
 30
0.0
 11
6451.5386930651
 21
5142.1795168638
 31
0.0
  0
LINE
  5
A0
330
1F
100
AcDbEntity
  8
0
  6
Continuous
 62
     8
370
    25
100
AcDbLine
 10
6451.5386930651
 20
5110.1795168638
 30
0.0
 11
6451.5386930651
 21
5126.1795168638
 31
0.0
  0
LINE
  5
A1
330
1F
100
AcDbEntity
  8
0
  6
Continuous
 62
     7
370
    25
100
AcDbLine
 10
6752.8367682693
 20
5274.9295168638
 30
0.0
 11
6764.908555703
 21
5274.9295168638
 31
0.0
  0
LINE
  5
A2
330
1F
100
AcDbEntity
  8
0
  6
Continuous
 62
     7
370
    25
100
AcDbLine
 10
6764.908555703
 20
5357.4295168638
 30
0.0
 11
6752.8367682693
 21
5357.4295168638
 31
0.0
  0
ARC
  5
A3
330
1F
100
AcDbEntity
  8
0
  6
Continuous
 62
     7
370
    25
100
AcDbCircle
 10
6764.908555703
 20
5277.4295168638
 30
0.0
 40
2.499999999999091
100
AcDbArc
 50
270.0
 51
345.2849283494
  0
ARC
  5
A4
330
1F
100
AcDbEntity
  8
0
  6
Continuous
 62
     7
370
    25
100
AcDbCircle
 10
6764.908555703
 20
5354.9295168638
 30
0.0
 40
2.499999999999295
100
AcDbArc
 50
14.7150716506
 51
90.0
  0
LINE
  5
A5
330
1F
100
AcDbEntity
  8
0
  6
Continuous
 62
     7
370
    25
100
AcDbLine
 10
6767.3265581238
 20
5276.794485925
 30
0.0
 11
6773.280536233
 21
5299.4654025715
 31
0.0
  0
LINE
  5
A6
330
1F
100
AcDbEntity
  8
0
  6
Continuous
 62
     7
370
    25
100
AcDbLine
 10
6773.3303538154
 20
5332.7039411306
 30
0.0
 11
6767.3265581238
 21
5355.5645478025
 31
0.0
  0
LINE
  5
A7
330
1F
100
AcDbEntity
  8
0
  6
Continuous
 62
     7
370
    25
100
AcDbLine
 10
6752.8367682693
 20
5084.9295168638
 30
0.0
 11
6764.908555703
 21
5084.9295168638
 31
0.0
  0
LINE
  5
A8
330
1F
100
AcDbEntity
  8
0
  6
Continuous
 62
     7
370
    25
100
AcDbLine
 10
6764.908555703
 20
5167.4295168638
 30
0.0
 11
6752.8367682693
 21
5167.4295168638
 31
0.0
  0
ARC
  5
A9
330
1F
100
AcDbEntity
  8
0
  6
Continuous
 62
     7
370
    25
100
AcDbCircle
 10
6764.908555703
 20
5087.4295168638
 30
0.0
 40
2.5
100
AcDbArc
 50
270.0
 51
345.2849283494
  0
ARC
  5
AA
330
1F
100
AcDbEntity
  8
0
  6
Continuous
 62
     7
370
    25
100
AcDbCircle
 10
6764.908555703
 20
5164.9295168638
 30
0.0
 40
2.5
100
AcDbArc
 50
14.7150716506
 51
90.0
  0
LINE
  5
AB
330
1F
100
AcDbEntity
  8
0
  6
Continuous
 62
     7
370
    25
100
AcDbLine
 10
6767.3265581238
 20
5086.794485925
 30
0.0
 11
6773.3303538154
 21
5109.6550925969
 31
0.0
  0
LINE
  5
AC
330
1F
100
AcDbEntity
  8
0
  6
Continuous
 62
     7
370
    25
100
AcDbLine
 10
6773.3303538154
 20
5142.7039411306
 30
0.0
 11
6767.3265581238
 21
5165.5645478025
 31
0.0
  0
SPLINE
  5
AD
330
1F
100
AcDbEntity
  8
0
  6
Continuous
 62
     7
370
    25
100
AcDbSpline
210
0.0
220
0.0
230
1.0
 70
     8
 71
     3
 72
    23
 73
    19
 74
     0
 42
0.00000001
 43
0.00000001
 40
0.0
 40
0.0
 40
0.0
 40
0.0
 40
0.0456736608101421
 40
0.1096905248429138
 40
0.1734851785986638
 40
0.2370392198630466
 40
0.3003595116888765
 40
0.3634888218076572
 40
0.4265202646711524
 40
0.489580304267033
 40
0.552873704523076
 40
0.61674698707401
 40
0.6817174798351789
 40
0.7485510771013691
 40
0.818390421473302
 40
0.8929675777257859
 40
0.9748656362293927
 40
1.0
 40
1.0
 40
1.0
 40
1.0
 10
6773.268318729232
 20
5299.418882076575
 30
0.0
 10
6774.008247866777
 20
5299.292493827368
 30
0.0
 10
6775.785272392603
 20
5298.988957978838
 30
0.0
 10
6778.480901171391
 20
5298.303696690076
 30
0.0
 10
6781.332095642402
 20
5297.408739121643
 30
0.0
 10
6784.008904326557
 20
5296.36266483089
 30
0.0
 10
6786.490831830637
 20
5295.192370503959
 30
0.0
 10
6788.756063862344
 20
5293.916864642759
 30
0.0
 10
6790.788007521157
 20
5292.560070378937
 30
0.0
 10
6792.574343776847
 20
5291.146770148876
 30
0.0
 10
6794.108527098756
 20
5289.702340884919
 30
0.0
 10
6795.390419830117
 20
5288.250605042901
 30
0.0
 10
6796.42642543461
 20
5286.811437395369
 30
0.0
 10
6797.228450643618
 20
5285.397412779363
 30
0.0
 10
6797.812780217017
 20
5284.008430994876
 30
0.0
 10
6798.191428916208
 20
5282.623514130374
 30
0.0
 10
6798.325533874305
 20
5281.577062059542
 30
0.0
 10
6798.334631806888
 20
5280.96735497709
 30
0.0
 10
6798.336768269301
 20
5280.824177804433
 30
0.0
  0
SPLINE
  5
AE
330
1F
100
AcDbEntity
  8
0
  6
Continuous
 62
     7
370
    25
100
AcDbSpline
210
0.0
220
0.0
230
1.0
 70
     8
 71
     3
 72
    28
 73
    24
 74
     0
 42
0.00000001
 43
0.00000001
 40
0.0
 40
0.0
 40
0.0
 40
0.0
 40
0.0309940590178971
 40
0.0769821487051555
 40
0.122964331376087
 40
0.1690522123129051
 40
0.2153544033669152
 40
0.2619675712633437
 40
0.308971166729687
 40
0.3564224038142371
 40
0.4043522028343038
 40
0.4527630620643756
 40
0.5016297867319133
 40
0.5509035331479001
 40
0.6005187835184093
 40
0.6504019850041715
 40
0.7004801110490817
 40
0.7506875820979608
 40
0.8009706788216244
 40
0.8512839142685072
 40
0.9016003391351652
 40
0.9519091695536143
 40
1.0
 40
1.0
 40
1.0
 40
1.0
 10
6830.336768269301
 20
5280.824177804433
 30
0.0
 10
6830.322595046316
 20
5281.631886085501
 30
0.0
 10
6830.287392004378
 20
5283.63804858805
 30
0.0
 10
6829.94482652049
 20
5286.830831640764
 30
0.0
 10
6829.267758506549
 20
5290.374710844201
 30
0.0
 10
6828.27952255336
 20
5293.863319067614
 30
0.0
 10
6826.991113981293
 20
5297.283036071529
 30
0.0
 10
6825.405580579451
 20
5300.6207367308
 30
0.0
 10
6823.528403637359
 20
5303.863228159224
 30
0.0
 10
6821.365165878377
 20
5306.996995360767
 30
0.0
 10
6818.922815916455
 20
5310.008013260754
 30
0.0
 10
6816.210033970467
 20
5312.881746386243
 30
0.0
 10
6813.237770942813
 20
5315.603353025228
 30
0.0
 10
6810.019514679238
 20
5318.15807995505
 30
0.0
 10
6806.571290172953
 20
5320.531763713816
 30
0.0
 10
6802.911370994659
 20
5322.711349434226
 30
0.0
 10
6799.059770249776
 20
5324.685232522976
 30
0.0
 10
6795.037691372046
 20
5326.443682911484
 30
0.0
 10
6790.866996942953
 20
5327.978067594682
 30
0.0
 10
6786.570164261593
 20
5329.283678320875
 30
0.0
 10
6782.167994281324
 20
5330.348956629729
 30
0.0
 10
6777.751899478425
 20
5331.182527285888
 30
0.0
 10
6774.781886955098
 20
5331.533891810806
 30
0.0
 10
6773.330353815374
 20
5331.705614067208
 30
0.0
  0
LINE
  5
AF
330
1F
100
AcDbEntity
  8
0
  6
Continuous
 62
     7
370
    25
100
AcDbLine
 10
6830.3367682693
 20
5142.5815371173
 30
0.0
 11
6830.3367682693
 21
5280.8241778044
 31
0.0
  0
LINE
  5
B0
330
1F
100
AcDbEntity
  8
0
  6
Continuous
 62
     7
370
    25
100
AcDbLine
 10
6798.3367682693
 20
5280.8241778044
 30
0.0
 11
6798.3367682693
 21
5142.5815371173
 31
0.0
  0
LINE
  5
B1
330
1F
100
AcDbEntity
  8
0
  6
Continuous
 62
     7
370
    25
100
AcDbLine
 10
6798.3367682693
 20
5142.5815371173
 30
0.0
 11
6798.3367682693
 21
5126.1795168638
 31
0.0
  0
LINE
  5
B2
330
1F
100
AcDbEntity
  8
0
  6
Continuous
 62
     7
370
    25
100
AcDbLine
 10
6830.3367682693
 20
5126.1795168638
 30
0.0
 11
6830.3367682693
 21
5142.5815371173
 31
0.0
  0
LINE
  5
B3
330
1F
100
AcDbEntity
  8
0
  6
Continuous
 62
     7
370
    25
100
AcDbLine
 10
6773.3303538154
 20
5110.1795168638
 30
0.0
 11
6814.3367682693
 21
5110.1795168638
 31
0.0
  0
LINE
  5
B4
330
1F
100
AcDbEntity
  8
0
  6
Continuous
 62
     7
370
    25
100
AcDbLine
 10
6798.3367682693
 20
5142.1795168638
 30
0.0
 11
6773.3303538154
 21
5142.1795168638
 31
0.0
  0
LINE
  5
B5
330
1F
100
AcDbEntity
  8
0
  6
Continuous
 62
     7
370
    25
100
AcDbLine
 10
6752.8367682693
 20
5345.3476715877
 30
0.0
 11
6752.8367682693
 21
5357.4295168638
 31
0.0
  0
LINE
  5
B6
330
1F
100
AcDbEntity
  8
0
  6
Continuous
 62
     7
370
    25
100
AcDbLine
 10
6752.8367682693
 20
5274.9295168638
 30
0.0
 11
6752.8367682693
 21
5345.3476715877
 31
0.0
  0
LINE
  5
B7
330
1F
100
AcDbEntity
  8
0
  6
Continuous
 62
     7
370
    25
100
AcDbLine
 10
6773.3303538154
 20
5327.8640493181
 30
0.0
 11
6773.3303538154
 21
5332.7039411306
 31
0.0
  0
LINE
  5
B8
330
1F
100
AcDbEntity
  8
0
  6
Continuous
 62
     7
370
    25
100
AcDbLine
 10
6773.3303538154
 20
5299.9686735211
 30
0.0
 11
6773.3303538154
 21
5327.8640493181
 31
0.0
  0
LINE
  5
B9
330
1F
100
AcDbEntity
  8
0
  6
Continuous
 62
     7
370
    25
100
AcDbLine
 10
6752.8367682693
 20
5084.9295168638
 30
0.0
 11
6752.8367682693
 21
5167.4295168638
 31
0.0
  0
LINE
  5
BA
330
1F
100
AcDbEntity
  8
0
  6
Continuous
 62
     7
370
    25
100
AcDbLine
 10
6773.3303538154
 20
5109.6550925969
 30
0.0
 11
6773.3303538154
 21
5112.4512002993
 31
0.0
  0
LINE
  5
BB
330
1F
100
AcDbEntity
  8
0
  6
Continuous
 62
     7
370
    25
100
AcDbLine
 10
6773.3303538154
 20
5139.9078334282
 30
0.0
 11
6773.3303538154
 21
5142.7039411306
 31
0.0
  0
ARC
  5
BC
330
1F
100
AcDbEntity
  8
0
  6
Continuous
 62
     7
370
    25
100
AcDbCircle
 10
6814.3367682693
 20
5126.1795168638
 30
0.0
 40
16.0
100
AcDbArc
 50
180.0
 51
0.0
  0
LINE
  5
BD
330
1F
100
AcDbEntity
  8
0
  6
Continuous
 62
     8
370
    25
100
AcDbLine
 10
6764.908555703
 20
5345.3476715877
 30
0.0
 11
6764.908555703
 21
5357.4295168638
 31
0.0
  0
LINE
  5
BE
330
1F
100
AcDbEntity
  8
0
  6
Continuous
 62
     8
370
    25
100
AcDbLine
 10
6764.908555703
 20
5274.9295168638
 30
0.0
 11
6764.908555703
 21
5345.3476715877
 31
0.0
  0
LINE
  5
BF
330
1F
100
AcDbEntity
  8
0
  6
Continuous
 62
     8
370
    25
100
AcDbLine
 10
6767.3265581238
 20
5344.0289393178
 30
0.0
 11
6767.3265581238
 21
5355.5645478025
 31
0.0
  0
LINE
  5
C0
330
1F
100
AcDbEntity
  8
0
  6
Continuous
 62
     8
370
    25
100
AcDbLine
 10
6767.3265581238
 20
5276.794485925
 30
0.0
 11
6767.3265581238
 21
5344.0289393178
 31
0.0
  0
LINE
  5
C1
330
1F
100
AcDbEntity
  8
0
  6
Continuous
 62
     8
370
    25
100
AcDbLine
 10
6764.908555703
 20
5084.9295168638
 30
0.0
 11
6764.908555703
 21
5167.4295168638
 31
0.0
  0
LINE
  5
C2
330
1F
100
AcDbEntity
  8
0
  6
Continuous
 62
     8
370
    25
100
AcDbLine
 10
6767.3265581238
 20
5086.794485925
 30
0.0
 11
6767.3265581238
 21
5165.5645478025
 31
0.0
  0
LWPOLYLINE
  5
C3
330
1F
100
AcDbEntity
  8
0
  6
Continuous
 62
     8
370
    25
100
AcDbPolyline
 90
       22
 70
   128
 43
0.0
 10
6798.33676844
 20
5280.82252519
 10
6798.5154750497
 20
5279.1379570509
 10
6799.0476033767
 20
5277.4894036826
 10
6799.9212663829
 20
5275.9153436576
 10
6801.1169478802
 20
5274.4509388759
 10
6802.60793832
 20
5273.1289017203
 10
6804.3609314396
 20
5271.9787643165
 10
6806.3367682693
 20
5271.0262188333
 10
6808.4913118794
 20
5270.2925435629
 10
6810.776433326
 20
5269.7941275985
 10
6813.1410867719
 20
5269.542104729
 10
6815.5324497667
 20
5269.542104729
 10
6817.8971032126
 20
5269.7941275985
 10
6820.1822246592
 20
5270.2925435629
 10
6822.3367682693
 20
5271.0262188333
 10
6824.312605099
 20
5271.9787643165
 10
6826.0655982186
 20
5273.1289017203
 10
6827.5565886584
 20
5274.4509388759
 10
6828.7522701557
 20
5275.9153436576
 10
6829.6259331619
 20
5277.4894036826
 10
6830.1580614889
 20
5279.1379570509
 10
6830.3367682693
 20
5280.8241778044
  0
LWPOLYLINE
  5
C4
330
1F
100
AcDbEntity
  8
0
  6
Continuous
 62
     8
370
    25
100
AcDbPolyline
 90
       22
 70
   128
 43
0.0
 10
6798.3367682693
 20
5142.5815371173
 10
6798.5154750497
 20
5140.8953163638
 10
6799.0476033767
 20
5139.2467629955
 10
6799.9212663829
 20
5137.6727029705
 10
6801.1169478802
 20
5136.2082981888
 10
6802.60793832
 20
5134.8862610332
 10
6804.3609314396
 20
5133.7361236293
 10
6806.3367682693
 20
5132.7835781462
 10
6808.4913118794
 20
5132.0499028758
 10
6810.776433326
 20
5131.5514869114
 10
6813.1410867719
 20
5131.2994640419
 10
6815.5324497667
 20
5131.2994640419
 10
6817.8971032126
 20
5131.5514869114
 10
6820.1822246592
 20
5132.0499028758
 10
6822.3367682693
 20
5132.7835781462
 10
6824.312605099
 20
5133.7361236293
 10
6826.0655982186
 20
5134.8862610332
 10
6827.5565886584
 20
5136.2082981888
 10
6828.7522701557
 20
5137.6727029705
 10
6829.6259331619
 20
5139.2467629955
 10
6830.1580614889
 20
5140.8953163638
 10
6830.3367682693
 20
5142.5815371173
  0
LINE
  5
C5
330
1F
100
AcDbEntity
  8
0
  6
Continuous
 62
     7
370
    25
100
AcDbLine
 10
5990.2886930651
 20
4871.8207746365
 30
0.0
 11
5990.2886930651
 21
4859.7489872028
 31
0.0
  0
LINE
  5
C6
330
1F
100
AcDbEntity
  8
0
  6
Continuous
 62
     7
370
    25
100
AcDbLine
 10
6072.7886930651
 20
4859.7489872028
 30
0.0
 11
6072.7886930651
 21
4871.8207746365
 31
0.0
  0
ARC
  5
C7
330
1F
100
AcDbEntity
  8
0
  6
Continuous
 62
     7
370
    25
100
AcDbCircle
 10
5992.7886930651
 20
4859.7489872028
 30
0.0
 40
2.5
100
AcDbArc
 50
180.0
 51
255.2849283494
  0
ARC
  5
C8
330
1F
100
AcDbEntity
  8
0
  6
Continuous
 62
     7
370
    25
100
AcDbCircle
 10
6070.2886930651
 20
4859.7489872028
 30
0.0
 40
2.5
100
AcDbArc
 50
284.7150716506
 51
0.0
  0
LINE
  5
C9
330
1F
100
AcDbEntity
  8
0
  6
Continuous
 62
     7
370
    25
100
AcDbLine
 10
5992.1536621263
 20
4857.3309847821
 30
0.0
 11
6015.0142687982
 21
4851.3271890905
 31
0.0
  0
LINE
  5
CA
330
1F
100
AcDbEntity
  8
0
  6
Continuous
 62
     7
370
    25
100
AcDbLine
 10
6048.2528073573
 20
4851.3770066729
 30
0.0
 11
6070.9237240038
 21
4857.3309847821
 31
0.0
  0
LINE
  5
CB
330
1F
100
AcDbEntity
  8
0
  6
Continuous
 62
     7
370
    25
100
AcDbLine
 10
6460.2886930651
 20
4871.8207746365
 30
0.0
 11
6460.2886930651
 21
4859.7489872028
 31
0.0
  0
LINE
  5
CC
330
1F
100
AcDbEntity
  8
0
  6
Continuous
 62
     7
370
    25
100
AcDbLine
 10
6542.7886930651
 20
4859.7489872028
 30
0.0
 11
6542.7886930651
 21
4871.8207746365
 31
0.0
  0
ARC
  5
CD
330
1F
100
AcDbEntity
  8
0
  6
Continuous
 62
     7
370
    25
100
AcDbCircle
 10
6462.7886930651
 20
4859.7489872028
 30
0.0
 40
2.5
100
AcDbArc
 50
180.0
 51
255.2849283494
  0
ARC
  5
CE
330
1F
100
AcDbEntity
  8
0
  6
Continuous
 62
     7
370
    25
100
AcDbCircle
 10
6540.2886930651
 20
4859.7489872028
 30
0.0
 40
2.5
100
AcDbArc
 50
284.7150716506
 51
0.0
  0
LINE
  5
CF
330
1F
100
AcDbEntity
  8
0
  6
Continuous
 62
     7
370
    25
100
AcDbLine
 10
6462.1536621263
 20
4857.3309847821
 30
0.0
 11
6484.3733504157
 21
4851.4955110899
 31
0.0
  0
LINE
  5
D0
330
1F
100
AcDbEntity
  8
0
  6
Continuous
 62
     7
370
    25
100
AcDbLine
 10
6518.0631173319
 20
4851.3271890905
 30
0.0
 11
6540.9237240038
 21
4857.3309847821
 31
0.0
  0
SPLINE
  5
D1
330
1F
100
AcDbEntity
  8
0
  6
Continuous
 62
     7
370
    25
100
AcDbSpline
210
0.0
220
0.0
230
1.0
 70
     8
 71
     3
 72
    28
 73
    24
 74
     0
 42
0.00000001
 43
0.00000001
 40
0.0
 40
0.0
 40
0.0
 40
0.0
 40
0.0301297358925664
 40
0.0805578364351981
 40
0.131050020276197
 40
0.1816147037917056
 40
0.232254066257434
 40
0.2829615248264313
 40
0.3337180902059897
 40
0.3844782668646826
 40
0.435187994632536
 40
0.4857767022411467
 40
0.5361601657294325
 40
0.5862467481584098
 40
0.6359466877162476
 40
0.6851829477252384
 40
0.7339012998761918
 40
0.7820773785769028
 40
0.8297194619631365
 40
0.8768671222150002
 40
0.9235869098021249
 40
0.9699665374855816
 40
1.0
 40
1.0
 40
1.0
 40
1.0
 10
6016.037238322508
 20
4851.327189090475
 30
0.0
 10
6016.129709455982
 20
4850.415171360137
 30
0.0
 10
6016.376949407638
 20
4847.976710717516
 30
0.0
 10
6017.051509536901
 20
4844.06657235612
 30
0.0
 10
6018.032204449043
 20
4839.616090355854
 30
0.0
 10
6019.263863860618
 20
4835.258836394991
 30
0.0
 10
6020.729996748878
 20
4831.012968382184
 30
0.0
 10
6022.430653523357
 20
4826.900057641556
 30
0.0
 10
6024.359944276314
 20
4822.941560407351
 30
0.0
 10
6026.511657802229
 20
4819.159612321517
 30
0.0
 10
6028.877281371363
 20
4815.57656219644
 30
0.0
 10
6031.44627337178
 20
4812.214452806313
 30
0.0
 10
6034.205596527819
 20
4809.094677942226
 30
0.0
 10
6037.139693470065
 20
4806.237282789203
 30
0.0
 10
6040.230687971262
 20
4803.660192573587
 30
0.0
 10
6043.458864164586
 20
4801.378508338026
 30
0.0
 10
6046.803331444611
 20
4799.404111998563
 30
0.0
 10
6050.242749264135
 20
4797.745336673614
 30
0.0
 10
6053.755957395721
 20
4796.407925020007
 30
0.0
 10
6057.322489728719
 20
4795.392671138869
 30
0.0
 10
6060.922714219866
 20
4794.706222106774
 30
0.0
 10
6064.120196748481
 20
4794.368066278875
 30
0.0
 10
6066.111405739025
 20
4794.334117781355
 30
0.0
 10
6066.894032124386
 20
4794.320774636549
 30
0.0
  0
SPLINE
  5
D2
330
1F
100
AcDbEntity
  8
0
  6
Continuous
 62
     7
370
    25
100
AcDbSpline
210
0.0
220
0.0
230
1.0
 70
     8
 71
     3
 72
    23
 73
    19
 74
     0
 42
0.00000001
 43
0.00000001
 40
0.0
 40
0.0
 40
0.0
 40
0.0
 40
0.0311263919879286
 40
0.116087533920655
 40
0.1913811803344009
 40
0.260635112328349
 40
0.3260401126803836
 40
0.3953411342588943
 40
0.4619081832651238
 40
0.5268514638237034
 40
0.5909278182277532
 40
0.6546009663029383
 40
0.718154915916075
 40
0.7817248458533815
 40
0.8454069270407545
 40
0.9092553387712409
 40
0.9732832421697054
 40
1.0
 40
1.0
 40
1.0
 40
1.0
 10
6066.894032124386
 20
4826.320774636549
 30
0.0
 10
6066.716725382588
 20
4826.324016235806
 30
0.0
 10
6066.055450461588
 20
4826.336105952595
 30
0.0
 10
6064.94853099054
 20
4826.494355792379
 30
0.0
 10
6063.531546378972
 20
4826.907667784152
 30
0.0
 10
6062.137941688516
 20
4827.521596613042
 30
0.0
 10
6060.697646950793
 20
4828.36593731224
 30
0.0
 10
6059.20854340353
 20
4829.473131535961
 30
0.0
 10
6057.686462412534
 20
4830.871809325496
 30
0.0
 10
6056.204358022253
 20
4832.516013639779
 30
0.0
 10
6054.778390927003
 20
4834.402637507866
 30
0.0
 10
6053.427594754194
 20
4836.524535705761
 30
0.0
 10
6052.172236093329
 20
4838.868988307489
 30
0.0
 10
6051.033471463104
 20
4841.419165901824
 30
0.0
 10
6050.026277660892
 20
4844.15217372329
 30
0.0
 10
6049.181013681708
 20
4847.050374859689
 30
0.0
 10
6048.600538739042
 20
4849.475426323068
 30
0.0
 10
6048.37060173091
 20
4850.954653930839
 30
0.0
 10
6048.302904399968
 20
4851.39016347198
 30
0.0
  0
LINE
  5
D3
330
1F
100
AcDbEntity
  8
0
  6
Continuous
 62
     7
370
    25
100
AcDbLine
 10
6205.1366728115
 20
4826.3207746365
 30
0.0
 11
6066.8940321244
 21
4826.3207746365
 31
0.0
  0
LINE
  5
D4
330
1F
100
AcDbEntity
  8
0
  6
Continuous
 62
     7
370
    25
100
AcDbLine
 10
6066.8940321244
 20
4794.3207746365
 30
0.0
 11
6205.1366728115
 21
4794.3207746365
 31
0.0
  0
LINE
  5
D5
330
1F
100
AcDbEntity
  8
0
  6
Continuous
 62
     7
370
    25
100
AcDbLine
 10
6244.734652558
 20
4826.3207746365
 30
0.0
 11
6205.1366728115
 21
4826.3207746365
 31
0.0
  0
LINE
  5
D6
330
1F
100
AcDbEntity
  8
0
  6
Continuous
 62
     7
370
    25
100
AcDbLine
 10
6205.1366728115
 20
4794.3207746365
 30
0.0
 11
6244.734652558
 21
4794.3207746365
 31
0.0
  0
ARC
  5
D7
330
1F
100
AcDbEntity
  8
0
  6
Continuous
 62
     7
370
    25
100
AcDbCircle
 10
6451.5386930651
 20
4860.3207746365
 30
0.0
 40
34.0
100
AcDbArc
 50
270.0
 51
344.9556542052
  0
ARC
  5
D8
330
1F
100
AcDbEntity
  8
0
  6
Continuous
 62
     7
370
    25
100
AcDbCircle
 10
6451.5386930651
 20
4860.3207746365
 30
0.0
 40
66.0
100
AcDbArc
 50
270.0
 51
352.1681412077
  0
LINE
  5
D9
330
1F
100
AcDbEntity
  8
0
  6
Continuous
 62
     7
370
    25
100
AcDbLine
 10
6451.5386930651
 20
4826.3207746365
 30
0.0
 11
6244.734652558
 21
4826.3207746365
 31
0.0
  0
LINE
  5
DA
330
1F
100
AcDbEntity
  8
0
  6
Continuous
 62
     7
370
    25
100
AcDbLine
 10
6244.734652558
 20
4794.3207746365
 30
0.0
 11
6451.5386930651
 21
4794.3207746365
 31
0.0
  0
LINE
  5
DB
330
1F
100
AcDbEntity
  8
0
  6
Continuous
 62
     7
370
    25
100
AcDbLine
 10
6002.3705383411
 20
4871.8207746365
 30
0.0
 11
6072.7886930651
 21
4871.8207746365
 31
0.0
  0
LINE
  5
DC
330
1F
100
AcDbEntity
  8
0
  6
Continuous
 62
     7
370
    25
100
AcDbLine
 10
5990.2886930651
 20
4871.8207746365
 30
0.0
 11
6002.3705383411
 21
4871.8207746365
 31
0.0
  0
LINE
  5
DD
330
1F
100
AcDbEntity
  8
0
  6
Continuous
 62
     7
370
    25
100
AcDbLine
 10
6019.8541606107
 20
4851.3271890905
 30
0.0
 11
6047.7495364077
 21
4851.3271890905
 31
0.0
  0
LINE
  5
DE
330
1F
100
AcDbEntity
  8
0
  6
Continuous
 62
     7
370
    25
100
AcDbLine
 10
6015.0142687982
 20
4851.3271890905
 30
0.0
 11
6019.8541606107
 21
4851.3271890905
 31
0.0
  0
LINE
  5
DF
330
1F
100
AcDbEntity
  8
0
  6
Continuous
 62
     7
370
    25
100
AcDbLine
 10
6501.5386930651
 20
4871.8207746365
 30
0.0
 11
6542.7886930651
 21
4871.8207746365
 31
0.0
  0
LINE
  5
E0
330
1F
100
AcDbEntity
  8
0
  6
Continuous
 62
     7
370
    25
100
AcDbLine
 10
6460.2886930651
 20
4871.8207746365
 30
0.0
 11
6501.5386930651
 21
4871.8207746365
 31
0.0
  0
LINE
  5
E1
330
1F
100
AcDbEntity
  8
0
  6
Continuous
 62
     7
370
    25
100
AcDbLine
 10
6501.5386930651
 20
4851.3271890905
 30
0.0
 11
6518.0631173319
 21
4851.3271890905
 31
0.0
  0
LINE
  5
E2
330
1F
100
AcDbEntity
  8
0
  6
Continuous
 62
     7
370
    25
100
AcDbLine
 10
6492.3414151168
 20
4851.3271890905
 30
0.0
 11
6501.5386930651
 21
4851.3271890905
 31
0.0
  0
LINE
  5
E3
330
1F
100
AcDbEntity
  8
0
  6
Continuous
 62
     8
370
    25
100
AcDbLine
 10
6002.3705383411
 20
4859.7489872028
 30
0.0
 11
6072.7886930651
 21
4859.7489872028
 31
0.0
  0
LINE
  5
E4
330
1F
100
AcDbEntity
  8
0
  6
Continuous
 62
     8
370
    25
100
AcDbLine
 10
5990.2886930651
 20
4859.7489872028
 30
0.0
 11
6002.3705383411
 21
4859.7489872028
 31
0.0
  0
LINE
  5
E5
330
1F
100
AcDbEntity
  8
0
  6
Continuous
 62
     8
370
    25
100
AcDbLine
 10
6003.689270611
 20
4857.3309847821
 30
0.0
 11
6070.9237240038
 21
4857.3309847821
 31
0.0
  0
LINE
  5
E6
330
1F
100
AcDbEntity
  8
0
  6
Continuous
 62
     8
370
    25
100
AcDbLine
 10
5992.1536621263
 20
4857.3309847821
 30
0.0
 11
6003.689270611
 21
4857.3309847821
 31
0.0
  0
LINE
  5
E7
330
1F
100
AcDbEntity
  8
0
  6
Continuous
 62
     8
370
    25
100
AcDbLine
 10
6501.5386930651
 20
4859.7489872028
 30
0.0
 11
6542.7886930651
 21
4859.7489872028
 31
0.0
  0
LINE
  5
E8
330
1F
100
AcDbEntity
  8
0
  6
Continuous
 62
     8
370
    25
100
AcDbLine
 10
6460.2886930651
 20
4859.7489872028
 30
0.0
 11
6501.5386930651
 21
4859.7489872028
 31
0.0
  0
LINE
  5
E9
330
1F
100
AcDbEntity
  8
0
  6
Continuous
 62
     8
370
    25
100
AcDbLine
 10
6501.5386930651
 20
4857.3309847821
 30
0.0
 11
6540.9237240038
 21
4857.3309847821
 31
0.0
  0
LINE
  5
EA
330
1F
100
AcDbEntity
  8
0
  6
Continuous
 62
     8
370
    25
100
AcDbLine
 10
6462.1536621263
 20
4857.3309847821
 30
0.0
 11
6501.5386930651
 21
4857.3309847821
 31
0.0
  0
LWPOLYLINE
  5
EB
330
1F
100
AcDbEntity
  8
0
  6
Continuous
 62
     8
370
    25
100
AcDbPolyline
 90
       22
 70
   128
 43
0.0
 10
6066.8940321244
 20
4794.3207746365
 10
6068.5802528779
 20
4794.4994814169
 10
6070.2288062462
 20
4795.031609744
 10
6071.8028662712
 20
4795.9052727501
 10
6073.2672710529
 20
4797.1009542475
 10
6074.5893082085
 20
4798.5919446873
 10
6075.7394456124
 20
4800.3449378068
 10
6076.6919910955
 20
4802.3207746365
 10
6077.4256663659
 20
4804.4753182467
 10
6077.9240823303
 20
4806.7604396932
 10
6078.1761051998
 20
4809.1250931392
 10
6078.1761051998
 20
4811.5164561339
 10
6077.9240823303
 20
4813.8811095798
 10
6077.4256663659
 20
4816.1662310264
 10
6076.6919910955
 20
4818.3207746365
 10
6075.7394456124
 20
4820.2966114663
 10
6074.5893082085
 20
4822.0496045858
 10
6073.2672710529
 20
4823.5405950256
 10
6071.8028662712
 20
4824.736276523
 10
6070.2288062462
 20
4825.6099395291
 10
6068.5802528779
 20
4826.1420678561
 10
6066.9432784215
 20
4826.320623061
  0
LWPOLYLINE
  5
EC
330
1F
100
AcDbEntity
  8
0
  6
Continuous
 62
     8
370
    25
100
AcDbPolyline
 90
       22
 70
   128
 43
0.0
 10
6205.1366728115
 20
4794.3207746365
 10
6206.822893565
 20
4794.4994814169
 10
6208.4714469334
 20
4795.031609744
 10
6210.0455069583
 20
4795.9052727501
 10
6211.5099117401
 20
4797.1009542475
 10
6212.8319488956
 20
4798.5919446873
 10
6213.9820862995
 20
4800.3449378068
 10
6214.9346317826
 20
4802.3207746365
 10
6215.668307053
 20
4804.4753182467
 10
6216.1667230175
 20
4806.7604396932
 10
6216.4187458869
 20
4809.1250931392
 10
6216.4187458869
 20
4811.5164561339
 10
6216.1667230175
 20
4813.8811095798
 10
6215.668307053
 20
4816.1662310264
 10
6214.9346317826
 20
4818.3207746365
 10
6213.9820862995
 20
4820.2966114663
 10
6212.8319488956
 20
4822.0496045858
 10
6211.5099117401
 20
4823.5405950256
 10
6210.0455069583
 20
4824.736276523
 10
6208.4714469334
 20
4825.6099395291
 10
6206.822893565
 20
4826.1420678561
 10
6205.1366728115
 20
4826.3207746365
  0
LINE
  5
ED
330
1F
100
AcDbEntity
  8
0
  6
Continuous
 62
     8
370
    25
100
AcDbLine
 10
6244.734652558
 20
4794.3207746365
 30
0.0
 11
6244.734652558
 21
4826.3207746365
 31
0.0
  0
LINE
  5
EE
330
1F
100
AcDbEntity
  8
0
  6
Continuous
 62
     8
370
    25
100
AcDbLine
 10
6451.5386930651
 20
4794.3207746365
 30
0.0
 11
6451.5386930651
 21
4826.3207746365
 31
0.0
  0
ENDSEC
  0
SECTION
  2
OBJECTS
  0
DICTIONARY
  5
C
330
0
100
AcDbDictionary
281
     1
  3
ACAD_GROUP
350
D
  3
ACAD_LAYOUT
350
1A
  3
ACAD_MLINESTYLE
350
17
  3
ACAD_PLOTSETTINGS
350
19
  3
ACAD_PLOTSTYLENAME
350
E
  3
ACAD_SCALELIST
350
47
  3
DWGPROPS
350
EF
  0
DICTIONARY
  5
D
102
{ACAD_REACTORS
330
C
102
}
330
C
100
AcDbDictionary
281
     1
  0
DICTIONARY
  5
1A
102
{ACAD_REACTORS
330
C
102
}
330
C
100
AcDbDictionary
281
     1
  3
Layout1
350
1E
  3
Layout2
350
26
  3
Model
350
22
  0
DICTIONARY
  5
17
102
{ACAD_REACTORS
330
C
102
}
330
C
100
AcDbDictionary
281
     1
  3
Standard
350
18
  0
DICTIONARY
  5
19
102
{ACAD_REACTORS
330
C
102
}
330
C
100
AcDbDictionary
281
     1
  0
ACDBDICTIONARYWDFLT
  5
E
102
{ACAD_REACTORS
330
C
102
}
330
C
100
AcDbDictionary
281
     1
  3
Normal
350
F
100
AcDbDictionaryWithDefault
340
F
  0
DICTIONARY
  5
47
102
{ACAD_REACTORS
330
C
102
}
330
C
100
AcDbDictionary
281
     1
  3
A0
350
48
  3
A1
350
49
  3
A2
350
4A
  3
A3
350
4B
  3
A4
350
4C
  3
A5
350
4D
  3
A6
350
4E
  3
A7
350
4F
  3
A8
350
50
  3
A9
350
51
  3
B0
350
52
  3
B1
350
53
  3
B2
350
54
  3
B3
350
55
  3
B4
350
56
  3
B5
350
57
  3
B6
350
58
  3
B7
350
59
  3
B8
350
5A
  3
B9
350
5B
  3
C0
350
5C
  3
C1
350
5D
  3
C2
350
5E
  3
C3
350
5F
  3
C4
350
60
  3
C5
350
61
  3
C6
350
62
  3
C7
350
63
  3
C8
350
64
  3
C9
350
65
  3
D0
350
66
  3
D1
350
67
  3
D2
350
68
  0
XRECORD
  5
EF
102
{ACAD_REACTORS
330
C
102
}
330
C
100
AcDbXrecord
280
     1
  1
DWGPROPS COOKIE
  2

  3

  4

  6

  7

  8
radek.stransky
  9

300
=
301
=
302
=
303
=
304
=
305
=
306
=
307
=
308
=
309
=
 40
0.0
 41
2460318.367033808
 42
2460318.367034155
  1

 90
        0
  0
LAYOUT
  5
1E
102
{ACAD_REACTORS
330
1A
102
}
330
1A
100
AcDbPlotSettings
  1

  2
none_device
  4

  6

 40
0.0
 41
0.0
 42
0.0
 43
0.0
 44
0.0
 45
0.0
 46
0.0
 47
0.0
 48
0.0
 49
0.0
140
0.0
141
0.0
142
1.0
143
1.0
 70
   688
 72
     1
 73
     0
 74
     5
  7

 75
    16
147
1.0
148
0.0
149
0.0
100
AcDbLayout
  1
Layout1
 70
     1
 71
     1
 10
0.0
 20
0.0
 11
420.0
 21
297.0
 12
0.0
 22
0.0
 32
0.0
 14
1.0000000000E+20
 24
1.0000000000E+20
 34
1.0000000000E+20
 15
-1.0000000000E+20
 25
-1.0000000000E+20
 35
-1.0000000000E+20
146
0.0
 13
0.0
 23
0.0
 33
0.0
 16
1.0
 26
0.0
 36
0.0
 17
0.0
 27
1.0
 37
0.0
 76
     0
330
1B
  0
LAYOUT
  5
26
102
{ACAD_REACTORS
330
1A
102
}
330
1A
100
AcDbPlotSettings
  1

  2
none_device
  4

  6

 40
0.0
 41
0.0
 42
0.0
 43
0.0
 44
0.0
 45
0.0
 46
0.0
 47
0.0
 48
0.0
 49
0.0
140
0.0
141
0.0
142
1.0
143
1.0
 70
   688
 72
     1
 73
     0
 74
     5
  7

 75
    16
147
1.0
148
0.0
149
0.0
100
AcDbLayout
  1
Layout2
 70
     1
 71
     2
 10
0.0
 20
0.0
 11
0.0
 21
0.0
 12
0.0
 22
0.0
 32
0.0
 14
0.0
 24
0.0
 34
0.0
 15
0.0
 25
0.0
 35
0.0
146
0.0
 13
0.0
 23
0.0
 33
0.0
 16
1.0
 26
0.0
 36
0.0
 17
0.0
 27
1.0
 37
0.0
 76
     0
330
23
  0
LAYOUT
  5
22
102
{ACAD_REACTORS
330
1A
102
}
330
1A
100
AcDbPlotSettings
  1

  2
none_device
  4
Letter_(8.50_x_11.00_Inches)
  6

 40
6.35
 41
6.35
 42
6.35000508
 43
6.35000508
 44
215.9
 45
279.4
 46
0.0
 47
0.0
 48
0.0
 49
0.0
140
0.0
141
0.0
142
1.0
143
1.0
 70
  1712
 72
     1
 73
     0
 74
     0
  7

 75
     0
147
1.0
148
0.0
149
0.0
100
AcDbLayout
  1
Model
 70
     1
 71
     0
 10
0.0
 20
0.0
 11
20000.0
 21
10000.0
 12
0.0
 22
0.0
 32
0.0
 14
0.0
 24
0.0
 34
0.0
 15
20000.0
 25
10000.0
 35
0.0
146
0.0
 13
0.0
 23
0.0
 33
0.0
 16
1.0
 26
0.0
 36
0.0
 17
0.0
 27
1.0
 37
0.0
 76
     0
330
1F
331
29
  0
MLINESTYLE
  5
18
102
{ACAD_REACTORS
330
17
102
}
330
17
100
AcDbMlineStyle
  2
Standard
 70
     0
  3

 62
   256
 51
90.0
 52
90.0
 71
     2
 49
0.5
 62
   256
  6
BYLAYER
 49
-0.5
 62
   256
  6
BYLAYER
  0
ACDBPLACEHOLDER
  5
F
102
{ACAD_REACTORS
330
E
102
}
330
E
  0
SCALE
  5
48
102
{ACAD_REACTORS
330
47
102
}
330
47
100
AcDbScale
 70
     0
300
1:1
140
1.0
141
1.0
290
     1
  0
SCALE
  5
49
102
{ACAD_REACTORS
330
47
102
}
330
47
100
AcDbScale
 70
     0
300
1:2
140
1.0
141
2.0
290
     0
  0
SCALE
  5
4A
102
{ACAD_REACTORS
330
47
102
}
330
47
100
AcDbScale
 70
     0
300
1:4
140
1.0
141
4.0
290
     0
  0
SCALE
  5
4B
102
{ACAD_REACTORS
330
47
102
}
330
47
100
AcDbScale
 70
     0
300
1:5
140
1.0
141
5.0
290
     0
  0
SCALE
  5
4C
102
{ACAD_REACTORS
330
47
102
}
330
47
100
AcDbScale
 70
     0
300
1:8
140
1.0
141
8.0
290
     0
  0
SCALE
  5
4D
102
{ACAD_REACTORS
330
47
102
}
330
47
100
AcDbScale
 70
     0
300
1:10
140
1.0
141
10.0
290
     0
  0
SCALE
  5
4E
102
{ACAD_REACTORS
330
47
102
}
330
47
100
AcDbScale
 70
     0
300
1:16
140
1.0
141
16.0
290
     0
  0
SCALE
  5
4F
102
{ACAD_REACTORS
330
47
102
}
330
47
100
AcDbScale
 70
     0
300
1:20
140
1.0
141
20.0
290
     0
  0
SCALE
  5
50
102
{ACAD_REACTORS
330
47
102
}
330
47
100
AcDbScale
 70
     0
300
1:30
140
1.0
141
30.0
290
     0
  0
SCALE
  5
51
102
{ACAD_REACTORS
330
47
102
}
330
47
100
AcDbScale
 70
     0
300
1:40
140
1.0
141
40.0
290
     0
  0
SCALE
  5
52
102
{ACAD_REACTORS
330
47
102
}
330
47
100
AcDbScale
 70
     0
300
1:50
140
1.0
141
50.0
290
     0
  0
SCALE
  5
53
102
{ACAD_REACTORS
330
47
102
}
330
47
100
AcDbScale
 70
     0
300
1:100
140
1.0
141
100.0
290
     0
  0
SCALE
  5
54
102
{ACAD_REACTORS
330
47
102
}
330
47
100
AcDbScale
 70
     0
300
2:1
140
2.0
141
1.0
290
     0
  0
SCALE
  5
55
102
{ACAD_REACTORS
330
47
102
}
330
47
100
AcDbScale
 70
     0
300
4:1
140
4.0
141
1.0
290
     0
  0
SCALE
  5
56
102
{ACAD_REACTORS
330
47
102
}
330
47
100
AcDbScale
 70
     0
300
8:1
140
8.0
141
1.0
290
     0
  0
SCALE
  5
57
102
{ACAD_REACTORS
330
47
102
}
330
47
100
AcDbScale
 70
     0
300
10:1
140
10.0
141
1.0
290
     0
  0
SCALE
  5
58
102
{ACAD_REACTORS
330
47
102
}
330
47
100
AcDbScale
 70
     0
300
100:1
140
100.0
141
1.0
290
     0
  0
SCALE
  5
59
102
{ACAD_REACTORS
330
47
102
}
330
47
100
AcDbScale
 70
     0
300
1/128" = 1'-0"
140
0.0078125
141
12.0
290
     0
  0
SCALE
  5
5A
102
{ACAD_REACTORS
330
47
102
}
330
47
100
AcDbScale
 70
     0
300
1/64" = 1'-0"
140
0.015625
141
12.0
290
     0
  0
SCALE
  5
5B
102
{ACAD_REACTORS
330
47
102
}
330
47
100
AcDbScale
 70
     0
300
1/32" = 1'-0"
140
0.03125
141
12.0
290
     0
  0
SCALE
  5
5C
102
{ACAD_REACTORS
330
47
102
}
330
47
100
AcDbScale
 70
     0
300
1/16" = 1'-0"
140
0.0625
141
12.0
290
     0
  0
SCALE
  5
5D
102
{ACAD_REACTORS
330
47
102
}
330
47
100
AcDbScale
 70
     0
300
3/32" = 1'-0"
140
0.09375
141
12.0
290
     0
  0
SCALE
  5
5E
102
{ACAD_REACTORS
330
47
102
}
330
47
100
AcDbScale
 70
     0
300
1/8" = 1'-0"
140
0.125
141
12.0
290
     0
  0
SCALE
  5
5F
102
{ACAD_REACTORS
330
47
102
}
330
47
100
AcDbScale
 70
     0
300
3/16" = 1'-0"
140
0.1875
141
12.0
290
     0
  0
SCALE
  5
60
102
{ACAD_REACTORS
330
47
102
}
330
47
100
AcDbScale
 70
     0
300
1/4" = 1'-0"
140
0.25
141
12.0
290
     0
  0
SCALE
  5
61
102
{ACAD_REACTORS
330
47
102
}
330
47
100
AcDbScale
 70
     0
300
3/8" = 1'-0"
140
0.375
141
12.0
290
     0
  0
SCALE
  5
62
102
{ACAD_REACTORS
330
47
102
}
330
47
100
AcDbScale
 70
     0
300
1/2" = 1'-0"
140
0.5
141
12.0
290
     0
  0
SCALE
  5
63
102
{ACAD_REACTORS
330
47
102
}
330
47
100
AcDbScale
 70
     0
300
3/4" = 1'-0"
140
0.75
141
12.0
290
     0
  0
SCALE
  5
64
102
{ACAD_REACTORS
330
47
102
}
330
47
100
AcDbScale
 70
     0
300
1" = 1'-0"
140
1.0
141
12.0
290
     0
  0
SCALE
  5
65
102
{ACAD_REACTORS
330
47
102
}
330
47
100
AcDbScale
 70
     0
300
1-1/2" = 1'-0"
140
1.5
141
12.0
290
     0
  0
SCALE
  5
66
102
{ACAD_REACTORS
330
47
102
}
330
47
100
AcDbScale
 70
     0
300
3" = 1'-0"
140
3.0
141
12.0
290
     0
  0
SCALE
  5
67
102
{ACAD_REACTORS
330
47
102
}
330
47
100
AcDbScale
 70
     0
300
6" = 1'-0"
140
6.0
141
12.0
290
     0
  0
SCALE
  5
68
102
{ACAD_REACTORS
330
47
102
}
330
47
100
AcDbScale
 70
     0
300
1'-0" = 1'-0"
140
12.0
141
12.0
290
     0
  0
ENDSEC
  0
EOF
